» » »

Bring Me Down Bass tabs (ver.1)

Artists:  A B C D E F G H I J K L M N O P Q R S T U V W X Y Z # 

Bring Me Down Bass tabs (ver.1)

Useless Id
Rating:
0/5 (0 votes)

Hard to play? Try these video lessons and learn fast.
                +++++++++++++++++++++++++++++
| Useless ID- Bring Me Down |
+++++++++++++++++++++++++++++

A great song by a great band...
Tried to write down perfect timings but 
anyways listen 2 the song

Tuning: EADG

Intro
1.
G|---------------------------------------|
D|---------------------------------------|
A|-0-0-0-00-0-0-0-555-0-0-0-00-0-0-0-555-|
E|---------------------------------------|

Verse
"Everyone gather round..."
2.
G|---------------------------------------------------------------------------|
D|---------------------------------------------------------------------------|
A|-0-0-0-00/4-4-4-44/5-5-5-55-0-0-0-555-0-0-0-00/4-4-4-44/5-5-5-55/8888-8888-|
E|---------------------------------------------------------------------------|

Pre-Chorus
"Its been a while..." 
3.
G|---------------------------------------------------------------------------|
D|---------------------------------------------------------------------------|
A|-0-0-000------------5-5-555-----------0-0-000------------5-5-555-----------|
E|---------0-000-0000---------2222-0000---------0-000-0000---------2222-0000-|

Chorus
"Once again..."
4.
G|-----------------------------------------------------------------------------|
D|-0-000-0-000-------------0-000-0-000----------------------------0000-0000-2x-|
A|-------------------------------------------------2--------4------------------|
E|-------------0-000-2-222-------------0-000-2-222----0~-------2~--------------|

Outro
5.
G|---------------------------------------|
D|---------------------------------------|
A|-0-0-0-00-0-0-0-555-0-0-0-00-0x--------|
E|---------------------------------------|

Verse
"Remember all..."
6.
G|--------------------------------2-1--------------------------------------|
D|-------------------------------------------------------------------------|
A|-0-0-0-00/4-4-4-44/5-5-5-55-0-0-----0-0-0-00/4-4-4-44/5-5-5-55/8888-8888-|
E|-------------------------------------------------------------------------|

Pre-Chorus
"Im loosing all..."
7.
G|---------------------------------------------------------------------------|
D|---------------------------------------------------------------------------|
A|-0-0-000------------5-5-555-----------0-0-000------------5-5-555-----------|
E|---------0-000-0000---------2222-0000---------0-000-0000---------2222-0000-|

Chorus
"Once again..."
8.
G|-----------------------------------------------------------------------------|
D|-0-000-0-000-------------0-000-0-000----------------------------0000-0000-2x-|
A|-------------------------------------------------2--------4------------------|
E|-------------0-000-2-222-------------0-000-2-222----0~-------2~--------------|

Bridge
9.
G|------------------------------------------------------------------------------|
D|----------------------------------------------------------2222-2222-2222-2222-|
A|-0-0-000--------------------4-444-4444-5-5-555-0-000-0000---------------------|
E|---------0-000-0000-2-2-222---------------------------------------------------|

10.
G|---------------------------------------------------------------------------------|
D|-------------------------------------------------------------2222-2222-2222-2222-|
A|-0-0-000x---------------------4-444-4444-5-5-555x-0-000-0000---------------------|
E|----------0-000-0000-2-2-222x----------------------------------------------------|

Chorus
"Once again..."
11.
G|-----------------------------------------------------------------------------|
D|-0-000-0-000-------------0-000-0-000----------------------------0000-0000-2x-|
A|-------------------------------------------------2--------4------------------|
E|-------------0-000-2-222-------------0-000-2-222----0~-------2~--------------|

Lyrics:

Everyone gather round, the fight's about to begin.
It's me against the whole wide world 
knowing that there's no way I could win.

It's been a while 
since I could come up with anything new 
and make it seem alright.
You know It's never been.

Once again 
I need to run away 
until it stops bringing me down.

Remember all the days we had to figure out what we want?
But, now those days have passed me by.
Why is it so hard to get around?

I'm losing all control over myself 
and I'm down to the floor.
Now, I don't even know who am I talking to anymore.

+++++++++++++++++++++++++++++++++
| RaiLeff                       |
+++++++++++++++++++++++++++++++++
            
Hard to play? Try these video lessons and learn fast. | Correct




comments powered by Disqus
↑ Back to top | Tablatures and chords are parodies/interpretations of the original songs. You may use it for private study, scholarship, research or language learning purposes only