» » »

Useless Id, Another Bad Taste Bass tabs (ver.1)

Artists:  A B C D E F G H I J K L M N O P Q R S T U V W X Y Z # 

Another Bad Taste Bass tabs (ver.1)

Useless Id Tabs
 Rating:
4/5 (4 votes)
Another Bad Taste lessons Tabs too difficult? Try these video lessons and learn fast
1
                +++++++++++++++++++++++++++++++++
| Useless ID- Another Bad Taste |
+++++++++++++++++++++++++++++++++

"Got rid of problems...."

Tuning: EADG

Verse
"Spent much time thinking about..."
1.
G|---------------------------------------------------|
D|---------------------------------------------------|
A|---------------------------------------------------|
E|---------------------------------------5~----4~----|

2.
G|---------------------------------------------|
D|----------------------------------2222222222-|
A|------------2222222222-5555555555------------|
E|-2222222222----------------------------------|

"I can find the time to call..."
3.
G|-------------------------------------------------------------------------------------------|
D|-------------------------------------------------------------------------------22222-33333-|
A|-0000000000-5555555555-7777777777------------------------2222222222-5555555555-------------|
E|----------------------------------5-7-5-4-5-4-2222222222-----------------------------------|

Chorus
"Got rid of problems..."
4.
G|---------------------------------------------------------------------|
D|---------------------------------------------------------------------|
A|-5555555555-7777777777-------------------------5555555555-777777xxxx-|
E|-----------------------55555-44444-22222-00000-----------------------|

5.
G|-----------------------------------------------------------------------|
D|-----------------------------------------------------------------------|
A|-------------------55555-------------------5--7-------44444-5555-77777-|
E|-55555-22222-00000-------55555-22222-00000-------5555------------------|

6.
G|-----------------------|
D|------------0000-22222-|
A|-4444------------------|
E|------22222------------|

Outro
7.
G|-------------------------------------------------|
D|---------------------------------------------7-9-|
A|-0000000000-4444444444-5555555555-77777777-9-----|
E|-------------------------------------------------|

8.
G|---------------------------------------------|
D|---------------------------------------------|
A|-0000000000-4444444444-5555555555-7777777777-|
E|---------------------------------------------|

Verse | Here you figure out the rythm its easy
"A secret to be kept inside..."
9.
G|-----------------------------------------------------------------------------|
D|-----------------------------------------------------------------------------|
A|-0000x-0x-0-000-5555x-5x-5-555-7777x-7x-7-777--------------------------------|
E|----------------------------------------------5-55-55-4-44-44-2222x-2x-2-222-|

10.
G|---------------------------------------------|
D|---------------------------------------------|
A|-2222x-2x-2-222/5555x-5x-5-555---------------|
E|-------------------------------0-00-00-0x----|

"Everyone's dying to know..."
11.
G|-------------------------------------------------------------------------------------------|
D|----------------------------------7-9-7-6-7-6-4444444444-----------------------22222-33333-|
A|-0000000000-5555555555-7777777777------------------------2222222222-5555555555-------------|
E|-------------------------------------------------------------------------------------------|

Chorus
"Got rid of problems..."
12.
G|---------------------------------------------------------------------------------|
D|---------------------------------------------------------------------------------|
A|-5x--------------------------------------------------------5555555555-777777xxxx-|
E|---------------------------5-5~----4-4~----2-2~----0-0~--------------------------|

13.
G|-----------------------------------------------------------------------|
D|-----------------------------------------------------------------------|
A|-------------------55555-------------------5--7-------44444-5555-77777-|
E|-55555-22222-00000-------55555-22222-00000-------5555------------------|

14.
G|---------------------------------|
D|------------0000-2x--------------|
A|-4444------------------0~--------|
E|------22222----------------------|

Lyrics:

Spent much time thinking about
what I'm gonna do without you
now that all my friends are sleeping in

I can find the time to call
this world wouldn't stop at all
I'll ask you "what have you done yesterday"

Got rid of problems but they just keep on getting big
I'm falling into this situation i've been through
I hope it won't be that way with you
falling in love again, a good thing to be remembering if it were true

A secret to be kept inside
you're giving it another try
this time you are up against yourself
do you wonder why?

Everyone's dying to know
another bad taste to this show
they hope to see you lose it's how it is

+++++++++++++++++++++++++++++++++
| RaiLeff                       |
+++++++++++++++++++++++++++++++++
            
Submit corrections

comments powered by Disqus
↑ Back to top | Useless Id Bass for Another Bad Taste. Lyrics for acoustic guitar and electric guitar. 1 Tablatures and chords are parodies/interpretations of the original songs. You may use it for private study, scholarship, research or language learning purposes only