» » »

Useless Id, Another Bad Taste Tabs (ver.1)

Artists:  A B C D E F G H I J K L M N O P Q R S T U V W X Y Z # 

Another Bad Taste Tabs (ver.1)

Useless Id Tabs
 Rating:
4/5 (5 votes)
Another Bad Taste lessons Tabs too difficult? Try these video lessons and learn fast
1
                -----------------------------------------------------------------------------
         Useless Id - Another bad taste
-----------------------------------------------------------------------------


JUST LISTEN THE SONG AND FOLLOW THE TAB!!!

Intro
e|----------------------------------------|
B|----------------------------------------|
G|--------7-----9-------------------------|
D|--7-----7-x7--9-x7----7--6--------------|
A|--7-x7--5-----7-------7--6--------------|
E|--5-------------------5--4--------------|
    palm muted 

e|----------------------------------------|
B|----------------------------------------|
G|------4---7---9-------------------------|
D|--4---4---7---9-------------------------|
A|--4---2---5---7-------------------------|
E|--2-------------------------------------|

VERSE 1
e|----------------------------------------|
B|----------------------------------------|
G|------7---9-----------------------------|
D|--7---7---9-------7--6------------------|
A|--7---5---7-------7--6------------------|
E|--5---------------5--4------------------|
    
e|----------------------------------------|
B|----------------------------------------|
G|------4---7---9--10---------------------|
D|--4---4---7---9--10---------------------|
A|--4---2---5---7--8----------------------|
E|--2-------------------------------------|

BRIDGE
e|----------------------------------------|
B|----------------------------------------|
G|--7---9---------------------7---9---x---|
D|--7---9-------7--6--4--2----7---9---x---|
A|--5---7-------7--6--4--2----5---7---x---|
E|--------------5--4--2--0----------------|
    
CHORUS
e|----------------------------------------|
B|----------------------------------------|
G|--------------7-------------------------|
D|--7---4---2---7-------------------------|
A|--7---4---2---5-------------------------|
E|--5---2---0-----------------------------|


e|----------------------------------------|
B|----------------------------------------|
G|--------------7-9-----------------------|
D|--7---4---2---7-9-----------------------|
A|--7---4---2---5-7-----------------------|
E|--5---2---0-----------------------------|


e|----------------------------------------|
B|----------------------------------------|
G|-----6--7--9--6-----7--9----------------|
D|--7--6--7--9--6--4--7--9----------------|
A|--7--4--5--7--4--4--5--7----------------|
E|--5--------------2----------------------|

OCTAVES
e|--------------------------------------------------|
B|--------------------------------------------------|
G|---9-------14--13-----16--14----18--16---16/18----|
D|--------------------------------------------------|
A|---7-------12--11-----14--12----16--14---14/16----|
E|--------------------------------------------------|

e|--------------------------------------------------|
B|--------------------------------------------------|
G|---9-9--9/11--9-----14--13-----16--14----18--16---|
D|--------------------------------------------------|
A|---7-7--7/9---7-----12--11-----14--12----16--14---|
E|--------------------------------------------------|

 IN THE OCTAVES 0THER GUITAR PLAYS THIS
e|-------------------------------|
B|-------------------------------|
G|-----6--7--9-------------------|
D|--7--6--7--9-------------------|
A|--7--4--5--7-------------------|
E|--5----------------------------|


VERSE 2 (PART 2)

e|----------------------------------------|
B|----------------------------------------|
G|------7---9-----------------------------|
D|--7---7---9-------7--6------------------|
A|--7---5---7-------7--6------------------|
E|--5---------------5--4------------------|
   {---- palm muted ----}

e|----------------------------------------|
B|----------------------------------------|
G|------4---7---9-------------------------|
D|--4---4---7---9-------------------------|
A|--4---2---5---7-------------------------|
E|--2-------------------------------------|
  {-- palm muted --}

e|----------------------------------------|
B|----------------------------------------|
G|------7---9-----------------------------|
D|--7---7---9-------7--6------------------|
A|--7---5---7-------7--6------------------|
E|--5---------------5--4------------------|
    

e|----------------------------------------|
B|----------------------------------------|
G|------4---7---9--10---------------------|
D|--4---4---7---9--10---------------------|
A|--4---2---5---7--8----------------------|
E|--2-------------------------------------|

BRIDGE
e|----------------------------------------|
B|----------------------------------------|
G|--7-------------------------7---9---x---|
D|--7-----------7--6--4--2----7---9---x---|
A|--5-----------7--6--4--2----5---7---x---|
E|--------------5--4--2--0----------------|
    
CHORUS
e|----------------------------------------|
B|----------------------------------------|
G|--------------7-------------------------|
D|--7---4---2---7-------------------------|
A|--7---4---2---5-------------------------|
E|--5---2---0-----------------------------|


e|----------------------------------------|
B|----------------------------------------|
G|--------------7-9-----------------------|
D|--7---4---2---7-9-----------------------|
A|--7---4---2---5-7-----------------------|
E|--5---2---0-----------------------------|


e|----------------------------------------|
B|----------------------------------------|
G|-----6--7--9--6--7--9-------------------|
D|--7--6--7--9--6--7--9-------------------|
A|--7--4--5--7--4--5--7-------------------|
E|--5-------------------------------------|

END!!!!!
e|------|
B|------|
G|------|
D|--7---|
A|--7---|
E|--5---|

(In the verse 2 there are some octaves after the palm muted part)
e|------------------------------------------------------------------|
B|------------------------------------------------------------------|
G|------7---9-----14-16-----13-14----14-------9----8----7--9--10----|
D|--7---7---9---------------------------X7--------------7--9--10----|
A|--7---5---7-----12-14-----11-12----12-------7----6----5--7--8-----|
E|--5---------------------------------------------------------------|
            
Submit corrections

comments powered by Disqus
↑ Back to top | Useless Id Tabs for Another Bad Taste. Lyrics for acoustic guitar and electric guitar. 1 Tablatures and chords are parodies/interpretations of the original songs. You may use it for private study, scholarship, research or language learning purposes only