» » »

Uriah Heep, Who Needs Me Tabs (ver.1)

Artists:  A B C D E F G H I J K L M N O P Q R S T U V W X Y Z # 

Who Needs Me Tabs (ver.1)

Uriah Heep Tabs
 Rating:
4/5 (4 votes)
Who Needs Me lessons Tabs too difficult? Try these video lessons and learn fast
1
                PROPS GO TO: Spastic Viper

Who Needs Me (Kerslake) 



Play the guitar chords in the verses and intros like this:
   C                      Bb                 F
E|-----------------------------------------------------------------|
B|-----------------------------------------------------------------|
G|-----------------------------------------------------------------|
D|-------------------------------------------10-10-12-10-10-12-etc-|
A|-10-10-12-10-10-12-etc.-8-8-10-8-8-10-etc.-8--8--8--8--8--8--etc-|
E|-8--8--8--8--8--8--etc.-6-6-6--6-6-6--etc.-----------------------|


                     
   Guitar intro:
   C             Bb/C        F/C         C           C           Bb/C         F/C
E|---------13-13------11-11-------11-11-------13-13-------13-13--------11-11-------11-11|
B|---------13-13------11-11-------10-10-------13-13-------13-13--------11-11-------10-10|
G|---------12-12------10-10-------10-10-------12-12-------12-12--------10-10-------10-10|
D|--------------------------------------------------------------------------------------|
A|--------------------------------------------------------------------------------------|
E|--------------------------------------------------------------------------------------| 
 
     verse:
      C
     Don't take life for granted
                  Bb                   F  
     'Cause you know that life won't grant you back
          Bb            F                  C 
     The feelings of a love that you once had 

     verse:
     You're taking me for granted
     'Cause you know that I'm a lover just like you
     And I'll do anything you want me to 
 

     chorus:
       G
     Who needs me, who needs me now
      F
     You found someone, you found someone
       G
     Who needs me, who needs me now
      F
     You've found another but no better
      G                             Bb
     You can't argue with me now I need it to ... 

     Guitar intro

     verse:
     Don't let go on something that is good
     When all you tell is bad
     Then I hear a story, make it sad 

     verse:
     And if the price of love can't cost you a lesson
     When it passed again
     I guess that you will find a better man 

     chorus:  
     Who needs me, who needs me now
     Ooh you found someone, you found someone
     Who needs me, who needs me now
     Ho you've found another but no better
     You can't argue with me now I need to ...
     You can't argue with me now I need to ...
      
    Guitar solo:

E|---------------------------------------------------------------|
B|---------------------------------------------------------------|
G|-------------------------------------------------------10-8----|
D|-10-10-10-10-10-10-10-10-10-10-10-10-10-10-10-10-10-10-10------|
A|---------------------------------------------------------------|
E|---------------------------------------------------------------| 


E|----------------------------------------------------------|
B|----------------------------------------------------------|
G|------------------------------------------------8h10p8h10-|
D|-8h10p8----8----8h10p8----8----8-10---8p10h8p10-----------|
A|--------10---10--------10---10----------------------------|
E|----------------------------------------------------------|


E|----------8h11p8----8----8-11-13-13b15-13p12p11----11-|
B|-8h11p811--------11---11------------------------13----|
G|------------------------------------------------------|
D|------------------------------------------------------|
A|------------------------------------------------------|
E|------------------------------------------------------|


E|-11p10p8----8----8-8--10b12r10p8----8-10b12r10p8----8-|
B|---------11---11-----------------10--------------10---|
G|------------------------------------------------------|
D|------------------------------------------------------|
A|------------------------------------------------------|
E|------------------------------------------------------|


E|-10b12r10p8----8-10b12r10p8----8-10b12r10p8----8-10b12r10p8----8-|
B|------------10--------------10--------------10--------------10---|
G|-----------------------------------------------------------------|
D|-----------------------------------------------------------------|
A|-----------------------------------------------------------------|
E|-----------------------------------------------------------------|


E|-10b12r10p8----8-10b12r10p8----8-10b12r10p8----8-10b12r10p8----8-|
B|------------10--------------10--------------10--------------10---|
G|-----------------------------------------------------------------|
D|-----------------------------------------------------------------|
A|-----------------------------------------------------------------|
E|-----------------------------------------------------------------| 


E|-10b12r10p8----8-10b12r10p8----8-8----8-8----8-8--15-------|
B|------------10--------------10-----10-----10---------------|
G|-----------------------------------------------------12-12-|
D|-----------------------------------------------------------|
A|-----------------------------------------------------------|
E|-----------------------------------------------------------|


E|-15-------15-------15-------15-------15-------15--------15-------|
B|-----------------------------------------------------------------|
G|----12-12----12-12----12-12----12-12----12-12----12-12-----12-12-|
D|-----------------------------------------------------------------|
A|-----------------------------------------------------------------|
E|-----------------------------------------------------------------|


E|-15-------15-------15-------15-------15-------15-------15-------|
B|----------------------------------------------------------------|
G|----12-12----12-12----12-12----12-12----12-12----12-12----12-12-|
D|----------------------------------------------------------------|
A|----------------------------------------------------------------|
E|----------------------------------------------------------------|


E|-15-------15-------15-----------0///////////////-22b24-22-20--|
B|----------------------------13--------------------------------|
G|----12-12----12-12----12-12-----------------------------------|
D|--------------------------------------------------------------|
A|--------------------------------------------------------------|
E|--------------------------------------------------------------|


E|-22b24-22b24r22-20-22b24r-22b24-22b24-22b24-22b24-22b24r22-20--|
B|---------------------------------------------------------------|
G|---------------------------------------------------------------|
D|---------------------------------------------------------------|
A|---------------------------------------------------------------|
E|---------------------------------------------------------------|
            
Submit corrections

comments powered by Disqus
↑ Back to top | Uriah Heep Tabs for Who Needs Me. Lyrics for acoustic guitar and electric guitar. 1 Tablatures and chords are parodies/interpretations of the original songs. You may use it for private study, scholarship, research or language learning purposes only