>
 >
Look At Yourself

Look At Yourself Guitar Tabs

Uriah Heep - Look At Yourself chords, tabs, tablatures, lyrics

Guitar lessons | Add/correct | Request | Top 50 tabs Artists:  A B C D E F G H I J K L M N O P Q R S T U V W X Y Z 0-9

Look At Yourself Guitar Tabs – Uriah Heep

CD, Sheet music, Poster

Do you like Look At Yourself? Share with your friends now
Bass TabsTabs
LOOK AT YOURSELF  (Hensley)

Intro (in 3/4): |Am - -|G - -|Am - -|G - -|
4/4 -> |Am - - -|- - G -|Am - - -|- - G -| <- played twice!

verse:
Am
I see you running

Don't know what
        G
You're running from
Am
Nobody's coming
                    G
What'd you do that was so wrong

|Am - - -|C-D C-G|Am - - -|C-D C-G|

chorus:
Am             G
Look back and turn back
Am           E
Look at yourself
Am          G
Don't be afraid, just
Am           E - G
Look at yourself

E|------------------------------------------|
B|------------------------------------------|
G|-9p8----9p8----9p8-----9p8----9p8---------|  <- played twice!
D|-----10-----10-----10------10-----10-9-7--|  
A|------------------------------------------|
E|------------------------------------------|

verse:
If you need assistance
Or if all you need is love
There's no point in hiding
Tell me what you're frightened of

|Am - - -|C-D C-G|Am - - -|C-D C-G|

chorus:
You've got a friend, just
Look at yourself
Don't be afraid, just
Look at yourself

E|------------------------------------------|
B|------------------------------------------|
G|-9p8----9p8----9p8-----9p8----9p8---------|  <- played twice!
D|-----10-----10-----10------10-----10-9-7--|  
A|------------------------------------------|
E|------------------------------------------|

E|-----------------------------------------|
B|-----------------------------------------|
G|-5-7-----5-7-----5h6h7-------5h6h7-------| 
D|-----5-7-----5-7-------5h6h7-------5h6h7-|  
A|-----------------------------------------|
E|-----------------------------------------|

|E - - -|- G F# F|E - - -|- G F# F|
|E - - -|- G F# F|E G F# F|E G F# F|  

E|--------------------------------------------|
B|-3p1---5p3---7p5---8p7---10p8---12p10----10-|
G|-----2-----4-----6-----7------9-------12----| <- played 4 times!
D|--------------------------------------------|  
A|--------------------------------------------|
E|--------------------------------------------|

   Am                                 G
E|------------------------------------------------|
B|-5---5----8-----8------10----10-----12----12----|
G|-7b9-7b9--10b12-10b12--12b14-12b14--14b16-14b16-|  
D|------------------------------------------------|  
A|------------------------------------------------|
E|------------------------------------------------|

   Am                                     G
E|----------------------------------------15----15----|
B|-13----13-----15----15-----17----17-----18b20-18b20-|
G|-15b17-15b17--17b19-17b19--19b21-19b21--------------|  
D|----------------------------------------------------|  
A|----------------------------------------------------|
E|----------------------------------------------------|

   Am
E|-------------------------------------------------|
B|-------------------------------------------------|
G|-----5-----5-----5-----5-----5-----5-----5-----5-|  
D|-5h7---5h7---5h7---5h7---5h7---5h7---5h7---5h7---|  
A|-------------------------------------------------|
E|-------------------------------------------------|

   Am                       G (wah-wah on)
E|-------------------------------------------------|
B|-------------------------------------------------|
G|-----5-----5-----5-----5-7b9-7b9-7b9-7b9-7b9-7b9-|
D|-5h7---5h7---5h7---5h7---------------------------|  
A|-------------------------------------------------|
E|-------------------------------------------------|

  G                   Am
E|-------------------------------------------------|
B|-------------------------------------------------|
G|-7b9-7b9-7b9-7b9-7b9r7-7-7-7-7-7-7-7-7-7p5---5-5-|
D|-------------------------------------------7-----|  
A|-------------------------------------------------|
E|-------------------------------------------------|

  Am                 G         Am                       G
E|---------------------------------------------------------------|
B|-7p5---5-5-7p5---5----------/12-10---/12-10---/12-10--15-15-15-|
G|-----7---------7---7-5-5---------------------------------------|
D|---------------------------------------------------------------|  
A|---------------------------------------------------------------|
E|---------------------------------------------------------------|

   Am                       G
E|-------------------------------------------------|
B|-------------------------------------------------|
G|-2p0-3p0-4p0../..etc../...12-12------------------|
D|-------------------------------------------------|  
A|-------------------------------------------------|
E|-------------------------------------------------|

  Am (wah-wah on)    G
E|-5--5--5--5--5--5--3-3-3-3-3-3-|
B|-5--5--5--5--5--5--3-3-3-3-3-3-|
G|-5--5--5--5--5--5--4-4-4-4-4-4-|
D|-------------------5-5-5-5-5-5-|  
A|-------------------------------|
E|-------------------------------|

   Am                       G
E|-5p0-6p0-7p0../..etc../...\\\\-------------------|
B|-------------------------------------------------|
G|-------------------------------------------------|
D|-------------------------------------------------|  
A|-------------------------------------------------|
E|-------------------------------------------------|

chorus:
Am             G
Look back and turn back
Am           E
Look at yourself
Am          G
Don't be afraid, just
Am           E - G - E
Look at yourself

(3/4) ->|E - -|- - -|- - -|D - -| etc...till end





Comments


Popular Uriah Heep tabs & chords
Lady In Black Bass Tabs
Suicidal Man Chords
Blind Eye 1 Tabs
Tales Tabs
Beautiful Dream Ukulele
Believe Ukulele
Circle Of Hands Ukulele
Come Away Melinda Ukulele
Something Or Nothing Ukulele
Stealin Ukulele


Song lyrics



↑ Back to top | Tablatures and chords are parodies/interpretations of the original songs. You may use it for private study, scholarship, research or language learning purposes only
© 2014 AZChords.com Contact us | Privacy policy | DMCA | Add/correct tabs | Request tabs | Top 50 tabs