» » »

Urbanus, Spanish Waltz Store Tabs (ver.2)

Artists:  A B C D E F G H I J K L M N O P Q R S T U V W X Y Z # 

Spanish Waltz Store Tabs (ver.2)

Urbanus Tabs
 Rating:
4.3/5 (6 votes)
Spanish Waltz Store lessons Tabs too difficult? Try these video lessons and learn fast
1
                (Theme)
Castle Crashers - Store Theme



Tuning: Standard


Guitar I:

Capo 4th Fret
Not Relative to Capo

^ - hammer on

E-5^6-5^6-5^6-----4-6-8-6-8^9-8---6----------------|
B-------------6-7---------------------7------------|
G--------------------------------------------------|
D--------------------------------------------------|
A--------------------------------------------------|
E--------------------------------------------------|

E-8-----8-8---8---6---4----------------------------|
B-------------------------7---6---4---6------------|
G--------------------------------------------------|
D--------------------------------------------------|
A--------------------------------------------------|
E--------------------------------------------------|

E-5^6-5^6-5^6-----4-6-8-6-8^9-8---6----------------|
B-------------6-7---------------------7------------|
G--------------------------------------------------|
D--------------------------------------------------|
A--------------------------------------------------|
E--------------------------------------------------|

E-8-----8-8---8---6---8---9---4--------------------|
B---------------------------------6----------------|
G-------------------------------------6------------|
D--------------------------------------------------|
A--------------------------------------------------|
E--------------------------------------------------|

E-12^13---13--13--13------13------11------10------11------11--11--11------11-----------------------|
B-------------------------------------------------------------------------------------11--13--14---|
G---------------------------------------------------------------------------------13---------------|
D--------------------------------------------------------------------------------------------------|
A--------------------------------------------------------------------------------------------------|
E--------------------------------------------------------------------------------------------------|

E-13^14---14--14--14------14------11---------------------------------------------------------------|
B-----------------------------------------13------14------14--14--14------14----------11--13--14---|
G---------------------------------------------------------------------------------13---------------|
D--------------------------------------------------------------------------------------------------|
A--------------------------------------------------------------------------------------------------|
E--------------------------------------------------------------------------------------------------|

E-15^16---16--16--16------16------14------13------14------14--14--14------14-----------------------|
B--------------------------------------------------------------------------------------------------|
G--------------------------------------------------------------------------------------------------|
D--------------------------------------------------------------------------------------------------|
A--------------------------------------------------------------------------------------------------|
E--------------------------------------------------------------------------------------------------|

E-----------------11------14------11---------------------------------------------------------------|
B---------13------------------------------13------14------14--14--14------14-----------------------|
G-13-----------------------------------------------------------------------------------------------|
D--------------------------------------------------------------------------------------------------|
A--------------------------------------------------------------------------------------------------|
E--------------------------------------------------------------------------------------------------|


Guitar II

Capo 4th Fret
Relative to Capo

Intro:

  A                       A
E--------------------------------------------------|
B-----2---2-------2---2-------2---2-------2---2----|
G-----2---2-------2---2-------2---2-------2---2----|
D-----2---2-------2---2-------2---2-------2---2----|
A-0-----------------------0------------------------|
E-------------0-----------------------0------------|

Verse (4x):

  A                       E
E--------------------------------------------------|
B-----2---2-------2---2-------0---0-------0---0----|
G-----2---2-------2---2-------1---1-------1---1----|
D-----2---2-------2---2-------2---2-------2---2----|
A-0-----------------------2------------------------|
E-------------0-----------------------0------------|

  E                       A
E--------------------------------------------------|
B-----0---0-------------------2---2-------2---2----|
G-----1---1-------------------2---2-------2---2----|
D-----2---2-------------------2---2-------2---2----|
A-2-----------------------0------------------------|
E-------------0---2---4---------------0------------|
            
Submit corrections

comments powered by Disqus
↑ Back to top | Urbanus Tabs for Spanish Waltz Store. Lyrics for acoustic guitar and electric guitar. 1 Tablatures and chords are parodies/interpretations of the original songs. You may use it for private study, scholarship, research or language learning purposes only