» » »

Up Dharma Down, Maybe Bass tabs (ver.1)

Artists:  A B C D E F G H I J K L M N O P Q R S T U V W X Y Z # 

Maybe Bass tabs (ver.1)

Up Dharma Down Tabs
 Rating:
4/5 (4 votes)
Maybe lessons Tabs too difficult? Try these video lessons and learn fast
1
                MAYBE-Up Dhamra Down

I also want to say thx to Abinitio... hehe =D
Timingan niyo nalang... Thx!

Tuning:EADG
itiming niyo nalang ung slide after guitar intro, from higher E ung slide..
G|---------------------|------------------|------------------|
D|---------------------|------------------|------------------|
A|------7-------5------|---7------5-5>9---|---7------5-5>10--|
E|---------5--7---5----|------5-7---------|------5-7---------|

G|------------------------|4x
D|------------------------|
A|---7------5-5>12-12<5---|
E|------5-7---------------|

G|----------------------------------------------------------------------|
D|-----------------------------------------------------------10---10----|
A|----------------------------------------------------------------------|
E|-8-8-8-8-8-8-8-8-8-8-8-8-8-8-8-8-8-8-8-8-8-8-8-8-8-8-8-8-8----8----8--|


G|-------------------------------------------------------------------------|
D|-------------------------------------------------------------------------|
A|-------------------------------------------------------------------------|
E|-10-10-10-10-10h12-10-10-10-10-10-10h12-10-10-10-10-10-10h12-10-10-10-10-|

G|---------------|
D|----12---12----|
A|---------------|
E|-10---10---10--|

G|----------------------------------------------------------------------|
D|-----------------------------------------------------------10---10----|
A|----------------------------------------------------------------------|
E|-8-8-8-8-8-8-8-8-8-8-8-8-8-8-8-8-8-8-8-8-8-8-8-8-8-8-8-8-8----8----8--|

G|--------------------------------------------------------------------------|
D|--------------------------------------------------------------------------|
A|--------------------------------------------------------------------------|
E|-10-10-10-10-10h12-10-10-10-10-10-10h12-10-10-10-10-10-10h12-10-10-10-10--|

G|----------------|
D|----------------|
A|----------------|
E|-10-10-10-10-10-|


G|---------------------|------------------|------------------|
D|---------------------|------------------|------------------|
A|------7-------5------|---7------5-5>9---|---7------5-5>10--|
E|---------5--7---5----|------5-7---------|------5-7---------|

G|------------------------|2x
D|------------------------|
A|---7------5-5>12-12<5---|
E|------5-7---------------|

G|----------------------------------------------------------------------|
D|-----------------------------------------------------------10---10----|
A|----------------------------------------------------------------------|
E|-8-8-8-8-8-8-8-8-8-8-8-8-8-8-8-8-8-8-8-8-8-8-8-8-8-8-8-8-8----8----8--|


G|-------------------------------------------------------------------------|
D|-------------------------------------------------------------------------|
A|-------------------------------------------------------------------------|
E|-10-10-10-10-10h12-10-10-10-10-10-10h12-10-10-10-10-10-10h12-10-10-10-10-|

G|---------------|
D|----12---12----|
A|---------------|
E|-10---10---10--|

G|----------------------------------------------------------------------|
D|-----------------------------------------------------------10---10----|
A|----------------------------------------------------------------------|
E|-8-8-8-8-8-8-8-8-8-8-8-8-8-8-8-8-8-8-8-8-8-8-8-8-8-8-8-8-8----8----8--|

G|--------------------------------------------------------------------------|
D|--------------------------------------------------------------------------|
A|--------------------------------------------------------------------------|
E|-10-10-10-10-10h12-10-10-10-10-10-10h12-10-10-10-10-10-10h12-10-10-10-10--|

G|----------------|
D|----------------|
A|----------------|
E|-10-10-10-10-10-|

G|-------|-------|--------|---------------|
D|-------|-------|--------|---------------|
A|-------|-------|--------|---------------|
E|--7-0--|--8-0--|--10-0--|--7-7-7-7-7-7--|

G|-------|-------|--------|------------------------|
D|-------|-------|--------|------------------------|
A|-------|-------|--------|------------------------|
E|--7-0--|--8-0--|--10-0--|--7-7-7-7-7-7-7>12-12<0-|

| /  slide up
| \  slide down
| h  hammer-on
| p  pull-off
| ~  vibrato
| +  harmonic
| x  Mute note
============================================================================
            
Submit corrections

comments powered by Disqus
↑ Back to top | Up Dharma Down Bass for Maybe. Lyrics for acoustic guitar and electric guitar. 1 Tablatures and chords are parodies/interpretations of the original songs. You may use it for private study, scholarship, research or language learning purposes only