» » »

Unwritten Law, Walrus Tabs (ver.1)

Artists:  A B C D E F G H I J K L M N O P Q R S T U V W X Y Z # 

Walrus Tabs (ver.1)

Unwritten Law Tabs
 Rating:
4/5 (4 votes)
Walrus lessons Tabs too difficult? Try these video lessons and learn fast
                Tuning: Really it is half a step down, but here it is in normal tuning

Intro- don't know the weird thing at begenning
e|--------------------------|
B|--------------------------|
G|--------------------------|
D|---------------------4----|
A|----------------4-6-------|  repeat however many times
E|-9/2-2-2-4-5-6------------|

Verse- "I read the news"- figure strumming on your own
                                               End Verse
e|-2--6--6--2--                            e|-4--4-----------|
B|-2--6--7--4--                            B|-4--6-----------|
G|-3--7--8--4--                            G|-4--6-----------|
D|-4--8--8--4-- x 3 (on 3rd time add this) D|-6--6-----------|
A|-4--8--6--2--                            A|-6--4-----------|
E|-2--6--------                            E|-4--------------|


Chorus- figure strumming on your own

e|-2--6--6--4--2--2--2--4-|
B|-2--6--7--6--4--2--4--6-|
G|-3--7--8--6--4--3--4--6-|
D|-4--8--8--6--4--4--4--6-|
A|-4--8--6--4--2--4--2--4-|
E|-2--6-----------2-------|

After chorus (figure strum on your own)

e|-------------------------------|
B|-------------------------------|
G|-------------------------------|
D|-1--3-4------------------------|
A|-1--3-4------------------------|
E|----1-2------------------------|

Outro

e|------------------|
B|------------------|
G|------------------|
D|-----------0-1-4--|
A|-----0-1-4--------|
E|-2-4--------------|

Order:
-Intro
-Verse
-Chorus
-After Chorus
-Verse
-Chorus
-After Chorus
-Intro
-End verse
-Chorus x2
-Outro
            
Submit corrections

comments powered by Disqus
↑ Back to top | Unwritten Law Tabs for Walrus. Lyrics for acoustic guitar and electric guitar. Tablatures and chords are parodies/interpretations of the original songs. You may use it for private study, scholarship, research or language learning purposes only