» » »

Teenage Suicide Tabs (ver.3)

Artists:  A B C D E F G H I J K L M N O P Q R S T U V W X Y Z # 

Teenage Suicide Tabs (ver.3)

Unwritten Law
Rating:
0/5 (0 votes)

Tabs too difficult? Try these video lessons and learn fast.
                please rate and send me any suggestions or critisism thanks.

INTRO
e----------------------------------------------------------------------------
B----------------------------------------------------------------------------
G----------------------------------------------------------------------------
D--9997999799979997999799979997999799979997999799979997999799979997----------
A----------------------------------------------------------------------------
E----------------------------------------------------------------------------
                                 GO!
CHORUS 1
e----------------------------------------------------------------------------
B----------------------------------------------------------------------------
G--11---11-11-11-11-11-11-11---11-11-11-11-11-11-11---11-11-11-11-11-11------
D--x----x--x--x--x--x--x--x----x--x--x--x--x--x--x----x--x--x--x--x--x-------
A--9----9--9--9--9--9--9--9----9--9--9--9--9--9--9----9--9--9--9--9--9-------
E----------------------------------------------------------------------------

e----------------------------------------------------------------------------
B----------------------------------------------------------------------------
G--12--11--9--9/11--7-77777777--9--9/11--7-77777777--------------------------
D--x---x---x--x/x---x-xxxxxxxx--x--x/x---x-xxxxxxxx--------------------------
A--10--9---7--7/9---5-55555555--7--7/9---5-55555555--------------------------
E----------------------------------------------------------------------------

VERSE
e----------------------------------------------------------------------------
B----77------77------77--------7----77------77------77-----------------------
G----77------77------77--------7----77------77------77-----------------------
D--9---979-----979-----97---7h9-9-----979-----979-----977777777777777--------
A----------------------------------------------------------------------------
E----------------------------------------------------------------------------

CHORUS 2
e----------------------------------------------------------------------------
B----------------------------------------------------------------------------
G----------------------------------------------------------------------------
D----------------------------------------------------------------------------
A--555-555-555-555--999-999-999-999--555-555-555-555--999-999--777-777-------
E--333-333-333-333--777-777-777-777--333-333-333-333--777-777--555-555-------


e----------------------------------------------------------------------------
B----------------------------------------------------------------------------
G----------------------------------------------------------------------------
D----------------------------------------------------------------------------
A--555-555-555-555--999-999-999-999---XX4-XX4-XX4-XX4-4-X-4-X4-4-X-4-X4------
E--333-333-333-333--777-777-777-777---XX2-XX2-XX2-XX2-2-X-2-X2-2-X-2-X2------

BRIDGE (harmonics)
e--------7--------
B-12--7-----------
G-----------5--7--
D-----------------
A-----------------
E-----------------

OUTRO
e----------------------------------------------------------------------------
B----------------------------------------------------------------------------
G----------------------------------------------------------------------------
D--999799979997999799979997999799979997999799979997999799979997999799979997--
A----------------------------------------------------------------------------
E----------------------------------------------------------------------------


e----------------------------------------------------------------------------
B----------------------------------------------------------------------------
G----------------------------------------------------------------------------
D--999799979997999799979979--------------------------------------------------------------------------
A----------------------------------------------------------------------------
E----------------------------------------------------------------------------


SONG ORDER:
INTRO
CHORUS 1 (X2)
VERSE
CHORUS 1
VERSE
CHORUS 2
CHORUS 1 (X2)
BRIDGE
CHORUS 2
OUTRO
            
Tabs too difficult? Try these video lessons and learn fast.


comments powered by Disqus
↑ Back to top | Tablatures and chords are parodies/interpretations of the original songs. You may use it for private study, scholarship, research or language learning purposes only