>
 >
Seein' Red 2

Seein' Red 2 Guitar Tabs

Unwritten Law - Seein' Red 2 chords, tabs, tablatures, lyrics

Guitar lessons | Add/correct | Request | Top 50 tabs Artists:  A B C D E F G H I J K L M N O P Q R S T U V W X Y Z 0-9

Seein' Red 2 Guitar Tabs – Unwritten Law

CD, Sheet music, Poster

Do you like Seein' Red 2? Share with your friends now
Bass TabsBass Tabs v2ChordsTabsTabs v2Tabs v3
Unwritten Law – Seein’ Red

I'm pretty sure it's right this time

Tune down half a step

Verse x 2
e|---------------------------------------------------------------------------|
B|---------------------------------------------------------------------------|
G|-----0-----0---0-----0-----0---0-----0-----0---0-----0-------0-------------|
D|---4---4-----4-----4---4-----4-----4---4-----4-----4---4---4---4-----------|
A|-3-------3-----------------------3-------3---------------2-----------------|
E|-----------------3-------3-----------------------0-------------------------|

e|---------------------------------------------------------------------------|
B|---------------------------------------------------------------------------|
G|-----0-----0---0-----0-----0---0-----0-------0-------0-----0---0-----------|
D|---4---4-----4-----4---4-----4-----4---4---4---4---4---4-----4-------------|
A|-3-------3-----------------------0-------0-------0-------0-----------------|
E|-----------------3-------3-------------------------------------------------|

Chorus x 2 (x= mute strings     ^= harmonics on 7th fret) 
e|---------------------------------------------------------------------------|
B|---------------------------------------------------------------------------|
G|-5-5-x-x-x-^-^-------------------5-5-x-x-x-^-^-----------------------------|
D|-5-5-x-x-x-^-^--5-5-5-5-5-5-5-5--5-5-x-x-x-^-^--5-5-5-5-5-5-5-5------------|
A|-3-3-x-x-x-^-^--5-5-5-5-5-5-5-5--3-3-x-x-x-^-^--5-5-5-5-5-5-5-5------------|
E|----------------3-3-3-3-3-3-3-3-----------------3-3-3-3-3-3-3-3------------|

e|---------------------------------------------------------------------------|
B|---------------------------------------------------------------------------|
G|-5-5-5-5-5-5-5-5-4-4-4-4-4-4-4-4-7-7-7-7-7-7-7-7-11-11-11-11-12-12-12-12---|
D|-5-5-5-5-5-5-5-5-4-4-4-4-4-4-4-4-7-7-7-7-7-7-7-7-11-11-11-11-12-12-12-12---|
A|-3-3-3-3-3-3-3-3-2-2-2-2-2-2-2-2-5-5-5-5-5-5-5-5--9--9--9--9-10-10-10-10---|
E|---------------------------------------------------------------------------|

Verse x 2

Chorus x 2

Interlude x 1
e|-2-3---------2-3---------2-3---------2b----------2-3---------2-3---------2-|
B|-----3---3-------3---3-------3---3-------3---3-------3---3-------3---3-----|
G|-------0---0-------0---0-------0---0-------0---0-------0---0-------0---0---|
D|---------------------------------------------------------------------------|
A|---------------------------------------------------------------------------|
E|---------------------------------------------------------------------------|

Bridge (repeat for a while)
e|---------------------------------------------------------------------------|
B|---------------------------------------------------------------------------|
G|-----0---------------------------------------------------------------------|
D|---4---4-------------------------------------------------------------------|
A|-0-------------------------------------------------------------------------|
E|---------------------------------------------------------------------------|

Finish x 1
e|---------------------------------------------------------------------------|
B|---------------------------------------------------------------------------|
G|-------5--------------6--------6-------------------------------------------|
D|---4-5---5---5----4-6---6---6--6-------------------------------------------|
A|-3---------3----4---------4----4-------------------------------------------|
E|---------------------------------------------------------------------------|


=========


SEEIN' RED - Unwritten Law

         -UL has two guitars, but I tabbed this song to be played with 
          only ONE guitar (cause you really don't need two guitars to play
          this song). 

Intro/Verse         
e|---------------------------------------------------------------------------|
B|---------------------------------------------------------------------------|
G|---------------------------------------------------------------------------|
D|---3-4-3---4-3-4---3-4-3---4-3-4---3-4-3---4-3-4---3-4-3---4-3-4-----------|
A|-2-------2-----------------------2-------2---------------1-----------------|
E|-----------------2-------2-----------------------0-------------------------|

e|---------------------------------------------------------------------------|
B|---------------------------------------------------------------------------|
G|---------------------------------------------------------------------------|
D|---3-4-3---4-3-4---3-4-3---4-3-4---3-4-3---3-4-3---3-4-3---4-3-4-----------|
A|-2-------2-----------------------4-------4-------4-------4-----------------|
E|-----------------2-------2-------------------------------------------------|


e|---------------------------------------------------------------------------|
B|---------------------------------------------------------------------------|
G|---------------------------------------------------------------------------|
D|---3-4-3---4-3-4---3-4-3---4-3-4---3-4-3---4-3-4---3-4-3---4-3-4-----------|
A|-2-------2-----------------------2-------2---------------1-----------------|
E|-----------------2-------2-----------------------0-------------------------|

e|---------------------------------------------------------------------------|
B|---------------------------------------------------------------------------|
G|---------------------------------------------------------------------------|
D|---3-4-3---4-3-4---3-4-3---4-3-4--3----------------------------------------|
A|-2-------2------------------------4----------------------------------------|
E|-----------------2-------2-------------------------------------------------|

Chorus X2 (I didn't list the strumming pattern, just the chords used)
e|-----------13h14----------------9h7-----------------------------------------|
B|(2)-------------(2)---(2)---------------------------------------------------|
G|-4--------------(2)----4-------------3---8-/11----4-----6/10/11-------------|
D|-4------4--------4-----4-----4-------3---x-/-x----4--4--x/x-/x-------------|
A|-2------2--------4-----2-----2-------1---6-/-9----2--4--4/8-/9-------------|
E|------(PM)-------2---------(PM)----------------------2----------------------|
  
-Play the first bar twice when begining the second verse,
 and end the verse w/ the second bar (instead of the fourth).
-Then play the chorus again

Then:
Solo 
e|----------------------------------------------------------------------------|
B|-----6-7----------6-7----------6-7---------6-7-6-------6-7---------6-7------|
G|-6-------6----6-------6----6-------6---8---------8-6-------6---6-------6---6|
D|---4-------4----4-------4----4-------4---8-----------4-------4---4-------4--|
A|----------------------------------------------------------------------------|
E|----------------------------------------------------------------------------|

Bridge (Not sure about 1st part, but sounds good if played softly)
e|---------------------------------------------------------------------------|
B|---------------------------------------------------------------------------|
G|-4/3---3/4---4--8--4/3-----------------------------------------------------|
D|-4/3---3/4---4--8--4/3-----3-4-3---3-4-3---3-4-3---4-3-4-------------------|
A|------------------------4-------4-------4-------4--------------------------|
E|---------------------------------------------------------------------------|

-Play the verse

-Then Finish With:
e|---------------------------------------------------------------------------|
B|-------0-------------2--------6--------------------------------------------|
G|------------------------------6--------------------------------------------|
D|---1-4---4-1-4---1-4---4-1-4--6--------------------------------------------|
A|-2----------------------------4--------------------------------------------|
E|---------------2-----------------------------------------------------------|





Comments


Popular Unwritten Law tabs & chords
Mean Girl Bass Tabs
Seein' Red Bass Tabs
She Says 2 Bass Tabs
Shallow 1 Chords
Elva 2 Tabs
Falling Down Tabs
Mean Girl Tabs
Mean Girl 1 Tabs
Sound Siren Tabs
Save Me Ukulele


Song lyrics



↑ Back to top | Tablatures and chords are parodies/interpretations of the original songs. You may use it for private study, scholarship, research or language learning purposes only
© 2014 AZChords.com Contact us | Privacy policy | DMCA | Add/correct tabs | Request tabs | Top 50 tabs