» » »

Unwritten Law, Seeing Red Tabs (ver.2)

Artists:  A B C D E F G H I J K L M N O P Q R S T U V W X Y Z # 

Seeing Red Tabs (ver.2)

Unwritten Law Tabs
 Rating:
4/5 (4 votes)
Seeing Red lessons Tabs too difficult? Try these video lessons and learn fast
1
                --------0------o---0-----o----0----0--------0----0---0-------0---------0----
-----4-----4-----4-----4--4------4-------4----4----4------4----4----4----4----
--3---------3-------------------------3--------3-----------------2---------
----------------------3-----3---------------------------0------------------


------------------0------4---4--------0------0---0--------0--------0------0---0-----:--
---------------4----4------0-------4----4------4-------4----4---4----4------4-------:---
------------3----------3----------------------------5---------5--------5------------:---
--------------------------------3---------3-----------------------------------------:---
---------5---
------4------
---0------hold---



----5--5--5--5--5--x--x--x---<5------------------------------------------
----5--5--5--5--5--x--x--x--------5--5--5--5--5--x--x--x--<4-------------
----3--3--3--3--3--x--x--x--------5--5--5--5--5--x--x--x-----------------
----------------------------------3--3--3--3--3--x--x--x-----------------
            
Submit corrections

comments powered by Disqus
↑ Back to top | Unwritten Law Tabs for Seeing Red. Lyrics for acoustic guitar and electric guitar. 1 Tablatures and chords are parodies/interpretations of the original songs. You may use it for private study, scholarship, research or language learning purposes only