» » »

Save Me Bass tabs (ver.1)

Artists:  A B C D E F G H I J K L M N O P Q R S T U V W X Y Z # 

Save Me Bass tabs (ver.1)

Unwritten Law
Rating:
3/5 (2 votes)

Hard to play? Try these video lessons and learn fast.
                Verse
G----------------------------------------------------------|
D----------------------------------------------------------|
A-4444-----------------------------------------------------|
E---------4444--6666--2222---------------------------------|

Chorus
G---------------------------------------------------|
D---------------------------------------------------|
A--4444444444444444---------------------------------|
E-----------------------4444444444444444------------|

G----------------------------------------------------------|
D----------------------------------------------------------|
A------------------------44444444--------------------------|
E--66666666--22222222----------------44444444--------------|

Bridge
G----------------------------------------------------------|
D----------------------------------------------------------|
A---4444---------------------------------------------------|
E----------4444-6666-22-44---------------------------------|
(in interlude section, first 2  times through, most notes don’t
ring out at all)
mutation
Change in Bridge/Tranfer
G--------------------------------------------------------------|
D--------------------------------------------------------------|
A-4444---------------------------------------------------------|
E---------4444-6~-2~-------------------------------------------|


song order
verse x4
chorus x1
verse x4
chorus x2
bridge x3
change in bridge/transfer x1
verse x4-(on 4th only play the first 8 notes/2 fret spots)
chorus x2-(on 1st time leave out first 32 notes/2 fret spots)
Bridge x4- Play as below 4th time
G-----------------------------------------------------------|
D-----------------------------------------------------------|
A---4444--------------------4-------------------------------|
E----------4444-6666-2-4------------------------------------|
            
Hard to play? Try these video lessons and learn fast. | Correct




comments powered by Disqus
↑ Back to top | Tablatures and chords are parodies/interpretations of the original songs. You may use it for private study, scholarship, research or language learning purposes only