» » »

Geronimo Tabs (ver.2)

Artists:  A B C D E F G H I J K L M N O P Q R S T U V W X Y Z # 

Geronimo Tabs (ver.2)

Unwritten Law
Rating:
0/5 (0 votes)

Hard to play? Try these video lessons and learn fast.
                D-Tuning

Intro   Guitar 1   (I dont know the Strumming pattern)
E|----------------------------------------------------
B|----------------------------------------------------
G|------3-----3-----3-----3-----3-----3-----3-----3---
D|--1-1---1-1---0-0---0-0-----------------------------
A|----------------------------------------------------
D|--------------------------1-1---1-1---1-1---1-1-----

Pre-Chorus
E|-------------------------------------------------------
B|-------------------------------------------------------
G|--8-8-8-8-8-8-8-8---------10-10-10-10-10-10-10-10-10---
D|--8-8-8-8-8-8-8-8---------10-10-10-10-10-10-10-10-10---
A|--6-6-6-6-6-6-6-6---------8--8--8--8--8--8--8--8--8----
D|-------------------------------------------------------

Chorus  (Guitar 1)
E|---------------------------------------------------------------
B|---------------------------------------------------------------
G|--8-8-8-8-8-8-8--10-10-10-10-10-10-10-10-----------------------
D|--8-8-8-8-8-8-8--10-10-10-10-10-10-10-10-1-1-1-1-1-1-1-1-1-1---
A|--6-6-6-6-6-6-6--8--8--8--8--8--8--8--8--1-1-1-1-1-1-1-1-1-1---
D|-----------------------------------------1-1-1-1-1-1-1-1-1-1---

Guitar 2
E|-------13-------
B|----11----11----
G|--8----------8--
D|----------------   Reapeat this part a lot during the chorus
A|----------------
D|----------------
Thanks for looking and send corrections if needed
            
Hard to play? Try these video lessons and learn fast. | Correct




comments powered by Disqus
↑ Back to top | Tablatures and chords are parodies/interpretations of the original songs. You may use it for private study, scholarship, research or language learning purposes only