>
 >
Denied

Denied Bass Tabs

Unwritten Law - Denied chords, tabs, tablatures, lyrics

Guitar lessons | Add/correct | Request | Top 50 tabs Artists:  A B C D E F G H I J K L M N O P Q R S T U V W X Y Z 0-9

Denied Bass Tabs – Unwritten Law

CD, Sheet music, Poster

Do you like Denied? Share with your friends now
Bass TabsTabs
+++++++++++++++++++++++++
| Unwritten Law- Denied |
+++++++++++++++++++++++++


"All I want is to hold on to you..."


Tuning: EADG



Intro
1.
G|----------------------------------------------------------------------7x----|
D|------------------------------------------------------------------4-7-------|
A|---4--4-4---5--5-5---4--4-4---5--5-5---4--4-4---5--5-5---4--4-4-5-----------|
E|-55-55-5--55-55-5--55-55-5--55-55-5--55-55-5--55-55-5--55-55-5--------------|

2.
G|-------------------------------------------------------------------------|
D|-7-777777-------45--7777777-----------------------------5555555-5--------|
A|-----------55555-------------5554422-0-000000--5555555-5---------7777777-|--x2
E|-------------------------------------------------------------------------|

Verse
"Im trying, denying..."
3.
G|------------------------------1-2-1-------------------------------1-2-1--|
D|----------------------------22-2-2-2----------------------------22-2-2-2-|
A|---4--4-4---5--5-5---4--4-4------------4--4-4---5--5-5---4--4-4----------|
E|-55-55-5--33-33-3--22-22-2-----------55-55-5--33-33-3--22-22-2-----------|

"Kinda hard to see..."
4.
G|--------------------------------------|
D|-7-777542-------45--7-777542----------|
A|-----------55555--------------5554422-|
E|--------------------------------------|

"Im learning, confirming..."
5.
G|------------------------------1-2-1-------------------------------1-2-1--|
D|----------------------------22-2-2-2----------------------------22-2-2-2-|
A|---4--4-4---5--5-5---4--4-4------------4--4-4---5--5-5---4--4-4----------|
E|-55-55-5--33-33-3--22-22-2-----------55-55-5--33-33-3--22-22-2-----------|

"Im trying, denying..."
6.
G|------------------------------------------------------------------|
D|---7/-------------------------------------------------------------|
A|---------------------------------------------------------77777777-|
E|-5-------3-33-3332-22-2220-00-0005-55-5553-33-3332-22-222---------|

Chorus
"Its coming down because of me..."
7.
G|-------------------------------------------------------------------------|
D|-7-777542-------45--7777542-----------------------------5555555-5--------|
A|-----------55555-------------5554422-0-000000--5555555-5---------7777777-|
E|-------------------------------------------------------------------------|

"Im singing..."
8.
G|-----------------------------------------------------------------------------------------------|
D|-7-777542-------45--7777542--------------------------------------------------------------------|
A|-----------55555-------------5554422-0-000000--5555555-5---------------------------77777777-7/-|
E|--------------------------------------------------------33333333-00000000-33333333-------------|

Outro
"When I look into your eyes..."
9.
G|-------------------------------------------------------------------------|
D|-------------------------------------44444x------------------------------|
A|-----------5555554-----------5555554-----------5555555-77777777----------|
E|-22222x------------22222x---------------------------------------55554444-|

"All these problem just begin...."
10.
G|-------------------------------------------------------------------------|
D|-------------------------------------44444x------------------------------|
A|-----------5555554-----------5555554-----------5555555-77777777-77777777-|
E|-22222x------------22222x------------------------------------------------|

Verse
"Want to lay back and close my eyes.."
11.
G|-------------------------------------------------------------------------|
D|-------------------------------------------------------------------------|
A|----------------------------------------------------------------77776777-|
E|-55555555-33333333-22222222-00000000-55555555-33333333-22222222----------|

"Im trying, denying..." (These are 11s, not 1s)
12.
G|---6--6-6---7--7-7---6--6-6---4--4-4---6--6-6---7--7-7-----11--11--11-99999999-|
D|-77-77-7--55-55-5--44-44-4--22-22-2--77-77-7--55-55-5--1111--11--11------------|
A|-------------------------------------------------------------------------------|
E|-------------------------------------------------------------------------------|

Outro
13.
G|---------------------------------------------------------------|
D|-7-777542-------45--7777542------------------------------------|
A|-----------55555-------------5554422-00000045-555442-0x--------|
E|---------------------------------------------------------------|


Please rate thanks!!


Lyrics:

I'm trying, denying
why won't you ever talk to me
I know it, can't show it
I guess it's kinda hard to see

I'm learning, confirming
the lies a thousand times before
I know it, can't blow it
not long before you shut the door

I'm trying, denying
I guess it's never supposed to be
it's coming down now
it's coming down because of me

Im singing, woah
Im singing now, woah
Im singing now again, now again

when I look into your eyes
you know you've got me hypnotized
all I want is to hold on

All these problems just begin
it seems as if they'll never end
all I want is to hold on to you

want to lay back and close my eyes
dream of things I could not find
just lay back and close my eyes

I'm trying, denying
I guess it's never supposed to be 
it's coming down now 
it's coming down because of me



+++++++++++++++++++++++++++++++++
| Raileff                       |
+++++++++++++++++++++++++++++++++





Comments


Popular Unwritten Law tabs & chords
California Sky Bass Tabs
She Says 2 Bass Tabs
Welcome To Oblivion Bass Tabs
Your My Angel 2 Bass Tabs
Celebration Song Tabs
Evolution Tabs
Get Up Tabs
Save Me Tabs
Unwrittenxmas Tabs
Up All Night 1 Tabs


Song lyrics



↑ Back to top | Tablatures and chords are parodies/interpretations of the original songs. You may use it for private study, scholarship, research or language learning purposes only
© 2014 AZChords.com Contact us | Privacy policy | DMCA | Add/correct tabs | Request tabs | Top 50 tabs