>
 >
Denied

Denied Guitar Tabs

Unwritten Law - Denied chords, tabs, tablatures, lyrics

Guitar lessons | Add/correct | Request | Top 50 tabs Artists:  A B C D E F G H I J K L M N O P Q R S T U V W X Y Z 0-9

Denied Guitar Tabs – Unwritten Law

CD, Sheet music, Poster

Do you like Denied? Share with your friends now
Bass TabsTabs
-------------------------------------------------------------------------------
-------------------------------------------------------------------------------
UNWRITTEN LAW WHAT!? Poway. Represent!
Tuning: Standard

Intro A
e|----------------------|
B|----------------------|
G|----------------------|
D|----------------------|
A|---4--4-4--5--5-5-----|
E|-55-55-5-55-55-5------|x3
   .. .. . .. .. .
Then..
e|-------------------------------------------------------------------------|
B|-------------------------------------------------------------------------|
G|----------------6-7------------------------------------------------------|
D|------------5-7-6-7------------------------------------------------------|
A|---4--4-4---5-7-4-5------------------------------------------------------|
E|-55-55-5----3-5----------------------------------------------------------|
   .. .. .

INTRO B
e|-------------------|    |------------------------------------------------|
B|-------------------|    |------------------------------------------------|
G|-----------777777--|    |------------------------------------------------|
D|-7-7777-7--777777--|    |-5-5555-5--222222-------------------------------|
A|-7-7777-7--555555--|    |-5-5555-5--222222-------------------------------|
E|-5-5555-5----------|X 3 |-3-3333-3--000000-------------------------------|

e|-------------------|    |--------------------------------------------------|
B|-------------------|    |--------------------------------------------------|
G|-----------777777--|    |--------------------------------------------------|
D|-7-7777-7--777777--|    |-5-5555-5--222222---------------------------------|
A|-7-7777-7--555555--|    |-5-5555-5--222222---------------------------------|
E|-5-5555-5----------|X 3 |-3-3333-3--000000---------------------------------|


VERSE
e|------------------------------------------|
B|------------------------------------------|
G|------------------------------------------|
D|----------------------------------6-7-6---|
A|---4--4-4----5--5-5----4--4-4---55-5-5----|
E|-55-55-5---55-55-5---22-22-2--------------|
   .. .. .   .. .. .   .. .. .    .. . .
I'm trying  Denying  Why wont you ever talk to me?

e|------------------------------------------|
B|------------------------------------------|
G|------------------------------------------|
D|----------------------------------6-7-6---|
A|---4--4-4----5--5-5----4--4-4---55-5-5----|
E|-55-55-5---55-55-5---22-22-2--------------|
   .. .. .   .. .. .   .. .. .    .. . .
I know it, Cant show it. I guess its kinda hard to . .

e|------------------------------------------|
B|------------------------------------------|
G|----------777777----------777777----------|
D|-7-7777-7-777777-7-7777-7-777777----------|
A|-7-7777-7-555555-7-7777-7-555555----------|
E|-5-5555-5--------5-5555-5-----------------|
Seeeeeeeee

e|------------------------------------------|
B|------------------------------------------|
G|------------------------------------------|
D|----------------------------------6-7-6---|
A|---4--4-4----5--5-5----4--4-4---55-5-5----|
E|-55-55-5---55-55-5---22-22-2--------------|
   .. .. .   .. .. .   .. .. .    .. . .
I'm learnin  Confermin  The lies a thousand times before.

e|------------------------------------------|
B|------------------------------------------|
G|------------------------------------------|
D|----------------------------------6-7-6---|
A|---4--4-4----5--5-5----4--4-4---55-5-5----|
E|-55-55-5---55-55-5---22-22-2--------------|
   .. .. .   .. .. .   .. .. .    .. . .
I know it, Cant blow it. Not long before you shut the door. .

CHORUS
e|---------------------------------|
B|---------------------------------|
G|---------------------------------|
D|-7-7----55-5555--444444--222222--|
A|-7-7----55-5555--444444--222222--|
E|-5 5----33-3333--222222--000000--|
I'm trying.Denying. I guess its never suppost to be. .

e|---------------------------------|
B|---------------------------------|
G|---------------------------------|
D|-777777--555555--333333--222222--|
A|-777777--555555--333333--222222--|
E|-555555--333333--222222--000000--|
Its coming out now, It's coming out because of. .

e|-------------------|    |------------------------------------------------|
B|-------------------|    |------------------------------------------------|
G|-----------777777--|    |------------------------------------------------|
D|-7-7777-7--777777--|    |-5-5555-5--222222-------------------------------|
A|-7-7777-7--555555--|    |-5-5555-5--222222-------------------------------|
E|-5-5555-5----------|X 3 |-3-3333-3--000000-------------------------------|
Meeee                      YEeeah. yeah!

e|-------------------|    |------------------------------------------------|
B|-------------------|    |------------------------------------------------|
G|-----------777777--|    |------------------------------------------------|
D|-7-7777-7--777777--|    |-5-5555-5--222222--5-5555-5-222222--------------|
A|-7-7777-7--555555--|    |-5-5555-5--222222--5-5555-5-222222--------------|
E|-5-5555-5----------|X 3 |-3-3333-3--000000--3-3333-3-000000--------------|
im singin. .woah!           now. . . again    now. . again


Bridge
e|----------------|    |---------------------------------------------------|
B|----------------|    |---------------------------------------------------|
G|---------777777-|    |-99999999------------------------------------------|
D|-44-444--777777-|    |-99999999---7--6-----------------------------------|
A|-44-444--555555-|    |-77777777---7--6-----------------------------------|
E|-22-222---------|X3  |------------5--4-----------------------------------|
                hold on
e|----------------|    |---------------------------------------------------|
B|----------------|    |---------------------------------------------------|
G|---------777777-|    |---------------------------------------------------|
D|-44-444--777777-|    |-2222222-------------------------------------------|
A|-44-444--555555-|    |-2222222-------------------------------------------|
E|-22-222---------|X3  |-0000000-------------------------------------------|
               hold on  to
e|------------------------------------------|
B|------------------------------------------|
G|------------------------------------------|
D|----------------------------------6-7-6---|
A|---4--4-4----5--5-5----4--4-4---55-5-5----|
E|-55-55-5---55-55-5---22-22-2--------------|
   .. .. .   .. .. .   .. .. .    .. . .
Youuuu. .oooh ooh

e|---------------------------------|
B|---------------------------------|
G|---------------------------------|
D|-777777--555555--333333--222222--|
A|-777777--555555--333333--222222--|
E|-555555--333333--222222--000000--|
want to lay back and close my eyes, dream of things I could not find

e|---------------------------------|
B|---------------------------------|
G|---------------------------------|
D|-777777--555555--333333--222222--|
A|-777777--555555--333333--222222--|
E|-555555--333333--222222--000000--|
Just lay back and close my eyes......

CHORUS
e|---------------------------------|
B|---------------------------------|
G|---------------------------------|
D|-7-7----55-5555--444444--222222--|
A|-7-7----55-5555--444444--222222--|
E|-5 5----33-3333--222222--000000--|
I'm trying. Denying. I guess its never suppost to be. .

e|---------------------------------|
B|---------------------------------|
G|---------------------------------|
D|-777777--555555--333333--222222--|
A|-777777--555555--333333--222222--|
E|-555555--333333--222222--000000--|
Its coming out now, It's coming out because of. .

e|-------------------|
B|-------------------|
G|-----------777777--|
D|-7-7777-7--777777--|
A|-7-7777-7--555555--|
E|-5-5555-5----------|X 3
Meeee


End on
e|------|
B|------|
G|------|
D|--7---|
A|--7---|
E|--5---|

It bothered me that this wasnt tabbed properly.. . dont usually do tabs but if you like 
one I can do others. feedback and corrections or comments welcomed of course : )

| .  palm mute
| /  slide up
| \  slide down
| h  hammer-on
| p  pull-off
| ~  vibrato
| +  harmonic
| x  Mute note
===============================================================================





Comments


Popular Unwritten Law tabs & chords
How You Feel Bass Tabs
She Says Chords
Because Of You Tabs
Elva 4 Tabs
Rescue Me 2 Tabs
Seeing Red 1 Tabs
Shallow (Intro Ver 2) Tabs
Teenage Suicide Tabs
Tell Me Why Tabs
Up All Night 3 Tabs


Song lyrics



↑ Back to top | Tablatures and chords are parodies/interpretations of the original songs. You may use it for private study, scholarship, research or language learning purposes only
© 2014 AZChords.com Contact us | Privacy policy | DMCA | Add/correct tabs | Request tabs | Top 50 tabs