» » »

Untitled, Untitled Tabs (ver.1)

Artists:  A B C D E F G H I J K L M N O P Q R S T U V W X Y Z # 

Untitled Tabs (ver.1)

Untitled Tabs
 Rating:
4/5 (4 votes)
Untitled lessons Tabs too difficult? Try these video lessons and learn fast
                DROPPED D

---------------------------------------------
--------------------------------------------- 
--------------------------------------------- 
--2-2-2-2------------------------------------ {PM
-----------3-3-3-3-5-5-5-5-4-4-4-4-0-0-0-0--- 
---------------------------------------------

---------------------------------------------
---------------------------------------------
---------------------------------------------
--2-2-2-2------------------------------------ {PM
----------3-3-3-3-5-5-5-5-4-4-4-4-1-1-1-1----
---------------------------------------------

---------------------------------------------
---------------------------------------------
---------------------------------------------
--2-2-2-2------------------------------------
----------3-3-3-3-5-5-5-5-4-4-4-4-7-7-7-7---- {PM
---------------------------------------------
RINSE AND REPEAT

---------------------------------------------
--3-3-3-3------------------------------------
--2-2-2-2-5-5-5-5-7-7-7-7-6-6-6-6-4-4-4-4----
--0-0-0-0-5-5-5-5-7-7-7-7-6-6-6-6-4-4-4-4----
--0-0-0-0-3-3-3-3-5-5-5-5-4-4-4-4-2-2-2-2----
---------------------------------------------

---------------------------------------------
--3-3-3-3------------------------------------
--2-2-2-2------------------------------------
--0-0-0-0-5-5-5-5-7-7-7-7-6-6-6-6-3-3-3-3----
--0-0-0-0-3-3-3-3-5-5-5-5-2-2-2-2-1-1-1-1----
----------3-3-3-3-5-5-5-5-2-2-2-2-1-1-1-1----
---------------------------------------------

---------------------------------------------
--3-3-3-3------------------------------------
--2-2-2-2------------------------------------
--0-0-0-0-5-5-5-5-7-7-7-7-6-6-6-6-9-9-9-9----
----------3-3-3-3-5-5-5-5-4-4-4-4-7-7-7-7----
----------3-3-3-3-5-5-5-5-4-4-4-4-7-7-7-7----
---------------------------------------------
RINSE AND REPEAT

CHORUS
---------------------------------------------
---------------------------------------------
---------------------------------------------
--2-2-2-2-5-5-5-5-4-4-4-4-3-3-3-3-2-2-2-2----
--2-2-2-2-5-5-5-5-4-4-4-4-3-3-3-3-2-2-2-2----
--2-2-2-2-5-5-5-5-4-4-4-4-3-3-3-3-2-2-2-2----
RINSE AND REPEAT

BACK TO #2 - RINSE AND REPEAT
BACK TO CHORUS - RINSE AND REPEAT & SLOW DOWN SLOWLY

ENDING - NAIL WITH THE PICK-
JUST SCREW WITH IT
------------------------------------------------------
------------------------------------------------------
------------------------------------------------------
------------------------------------------------------
------------------------------------------------------
--3-3-3-3-3-3-5-5-5-5-5-5-0-0-0-0-0-0-9-9-9-9-9-9-----

------------------------------------------------------
------------------------------------------------------
------------------------------------------------------
------------------------------------------------------
------------------------------------------------------
--3-3-3-3-3-3-5-5-5-5-5-5-9-9-9-9-9-9-0-0-0-0-0-0-----
RINSE AND REPEAT
            
Submit corrections

comments powered by Disqus
↑ Back to top | Untitled Tabs for Untitled. Lyrics for acoustic guitar and electric guitar. Tablatures and chords are parodies/interpretations of the original songs. You may use it for private study, scholarship, research or language learning purposes only