» » »

Face Down Tabs (ver.1)

Artists:  A B C D E F G H I J K L M N O P Q R S T U V W X Y Z # 

Face Down Tabs (ver.1)

Unloco
Rating:
3/5 (2 votes)

Hard to play? Try these video lessons and learn fast.
                This tab is 100% correct. You can now play this song without having to downtune your guitar to Drop D and 1 1/2 steps down. Just tune the top strong to D. 

*= let ring


Intro w/distortion (figure out the strumming patterns by listening to the song.)
--------------------------------------
--------------------------------------
--------------------------------------
-8---6---8----6----4----2---4---2-----x2
-6---6---6----6----2----2---2---2-----
-6---6---6----6----2----2---2---2-----

Verse (Clean)
--------------------------------------------------
--------------------------------------------------
--------------------------------------------------
-----8---8-------6---6--------4---4-------2---2---x2
---6---6---6---6---6---6----2---2---2---2---2---2-
-6-----------6------------2-----------2-----------


"And yet it's hard just to find..." (not the exact amount but you can
figure it out from the song)

Palm mute
--------------------------------------------------
--------------------------------------------------
--------------------------------------------------
-888888666666688888866666664444442222224444442222-
--------------------------------------------------
--------------------------------------------------

(let off palm mute slowly)
-------------------------------------------------------
-------------------------------------------------------
-------------------------------------------------------
-88888666666666888888899999944444444422222244444422222-
-------------------------------------------------------
-------------------------------------------------------

pre chorus (same as intro, figure out the strumming)
--------------------------------------
--------------------------------------
--------------------------------------
-8---6---8----6----4----2---4----2----x2
-6---6---6----6----2----2---2----2----
-6---6---6----6----2----2---2----2----

chorus *not 100% sure if this is right* (strum fast). Again not the same amount 
of strumming but just listen to the song.
----------------------------------------
----------------------------------------
----------------------------------------
--66666/77777---2---4*---2*-------------x2
--66666/77777---2---2*---2*-------------
--66666/77777---2---2*---2*-------------

Bridge: (bass does alittle solo) clean
-----------------------------------------
-----------------------------------------
-----------------------------------------
---6---8--6-----6---9--8---6-------------
-----6------------6------6---6-----------
-6------------6--------------------------

-----------------------------------------
-----------------------------------------
-----------------------------------------
---6---8--6-----6----8--11---------------
-----6------------6----------------------
-6------------6--------------------------

Outro:
--------------------------------
--------------------------------
--------------------------------
-----8---8-------6---6--------4-
---6---6---6---6---6---6----2---
-6-----------6------------2-----



Order goes as follows:
Intro
Verse
Pre-chorus
Chorus
Verse
Pre-Chorus
Chorus (3 times)
Bridge
Chorus (4 times)
Outro


Thats it! This is my first tab and it's a pretty easy song to
learn since i mainly play drums. 

Go support UNLOCO!!!

Any comments can be sent to:

-Dan
            
Hard to play? Try these video lessons and learn fast. | Correct




comments powered by Disqus
↑ Back to top | Tablatures and chords are parodies/interpretations of the original songs. You may use it for private study, scholarship, research or language learning purposes only