» » »

Union Underground, Revolution Man Tabs (ver.2)

Artists:  A B C D E F G H I J K L M N O P Q R S T U V W X Y Z # 

Revolution Man Tabs (ver.2)

Union Underground Tabs
 Rating:
4.2/5 (5 votes)
Revolution Man lessons Tabs too difficult? Try these video lessons and learn fast
1
                Revolution Man
                        The Union Underground

    Keys arr for guit.
E---------------------------------------------------------------------|
B---------------3-----------------------3-----------------------1-----|
G---------3-----------2--3--------3-----------2--3--------2-----------|
D------5-----5-----5-----------5-----5-----5-----------0-----0--------|
A---------------------------------------------------------------------|
D---5-----------------------5-----------------------0-----------------|
    2 times
                                     Strum and let ring
E---------------------------------|--3--------0--|--------------------|
B------------------------1--------|--3--------3--|--------------------|
G------2-----------2-----------2--|--3--------2--|--------------------|
D---0-----0-----0-----0-----0-----|--5--------0--|--------------------|
A---------------------------------|--5--------0--|--------------------|
D------------0--------------------|--5--------0--|--------------------|

    Verse Riff
E---------------------------------------------------------------------|
B---------------------------------------------------------------------|
G---------------------------------------------------------------------|
D---5--5--xp6--3--5--5--xp6--3--5--5--xp6--3--5--5--xp6--3--0--0------|
A---5--5--x-6--3--5--5--x-6--3--5--5--x-6--3--5--5--x-6--3--0--0------|
D---5--5--x-6--3--5--5--x-6--3--5--5--x-6--3--5--5--x-6--3--0--0------|


E-----------------------------------------------------|---------------|
B-----------------------------------------------------|---------------|
G---7p8--5--------7p8--5--------7p8--5--------7p8--5--|---------------|
D-----------0--0----------0--0----------0--0----------|---------------|
A---5-6--3--0--0--5-6--3--0--0--5-6--3--0--0--5-6--3--|---------------|
D-----------0--0----------0--0----------0--0----------|---------------|

    Chorus Riff
E---5--1--3--0---------5--1--3--0---------|---------------------------|
B---8--4--6--3---------8--4--6--3---------|---------------------------|
G---7--3--5--2---------7--3--5--2---------|---------------------------|
D---5--1--3--0---------5--1--3--0---------|---------------------------|
A---5--1--3--0--3--3^--5--1--3--0--3--3^--|---------------------------|
D---5--1--3--0---------5--1--3--0---------|---------------------------|

    Lead Riff
E---------------------------------|-----------------------------------|
B---------------------------------|-----------------------------------|
G---------------------------------|-----------------------------------|
D---------------------------------|-----------------------------------|
A---------------------------------|-----------------------------------|
D---5--5--5--6--3--5--5--5--6--3--|-----------------------------------|
    with Rythmic Wah        etc
    2nd Lead Riff
E---------------------------------|-----------------------------------|
B---------------------------------|-----------------------------------|
G---------------------------------|-----------------------------------|
D---------------------------------|-----------------------------------|
A---5--5--5--6--3--5--5--5--6--3--|-----------------------------------|
D---------------------------------|-----------------------------------|
    with Rythmic Wah
            
Submit corrections

comments powered by Disqus
↑ Back to top | Union Underground Tabs for Revolution Man. Lyrics for acoustic guitar and electric guitar. 1 Tablatures and chords are parodies/interpretations of the original songs. You may use it for private study, scholarship, research or language learning purposes only