» » »

This Lying World Bass tabs (ver.1)

Artists:  A B C D E F G H I J K L M N O P Q R S T U V W X Y Z # 

This Lying World Bass tabs (ver.1)

Unearth
Rating:
0/5 (0 votes)

Hard to play? Try these video lessons and learn fast.
                This Lying World
Unearth
Tuning:B F# B E

Intro: just keep hiting open building up then hit the opens to the right rythm not to 
on the tab
|-----------------------------------------------------------------------|
|-----------------------------------------------------------------------|
|-------9h10-9h10--------9h10-9h10-9h10-9h10-------9h10-9h10------------| x4
|-00000-----------00000----------------------oooooo----------oooo-oooo--|
You don't have to do the 9h10's

fill
|-----------------------------------------------------------------------|
|-----------------------------------------------------------------------|
|-----------------------------------------------------------------------|
|--0~--0--12/--0~-------------------------------------------------------|
       .

Riff 1x4
|------------------------------------------------------------------------|
|--------------3---------------------------------------------------------|
|--3-5-6-3-5-6----3h5p3h5--3-5-6-5-0-5-3-0-6-0-3h5-----------------------|
|-0-----------------------0----------------------------------------------|


Riff3x4
|-----------------------------------------------------------------------|
|-----------------------10-8-7------------------------------------------|
|--5-5-5-7-8-7-5-7-8-10--------10-7-8-7-8-------------------------------|
|-----------------------------------------------------------------------|

Repeat Riff1x2

fill2
|-----------------------------------------------------------------------|
|-----------------------------------------------------------------------|
|--10--------10-------10/-----------------------------------------------|
|----0000000---0000000--------------------------------------------------|

Riff4 x4
|-----------------------------------------------------------------------|
|-----------------------------------------------------------------------|
|--12p10-12-------12p10-12-10p8-10-12p10-12-------12p10-12-13p12-13-----|
|-----------00000---------------------------00000-----------------------|

Fill3x2 then do this 2 on the B string
|-----------------------------------------------------------------------|
|-----------------------------------------------------------------------|
|---555555555-777777-88888888-5-10p7-7----------------------------------|
|-----------------------------------------------------------------------|

Riff5X4 (last time end with hitting open on B and let ring)
|-----------------------------------------------------------------------|
|-----------------------------------------------------------------------|
|-----------------------------------------------------------------------|
|-ooooo-12-0000-00000-12p10-10-12---------------------------------------|

Riff 5 cont...
|-----------------------------------------------------------------------|
|-----------------------------------------------------------------------|
|-----------------------------------------------------------------------|
|-00000-12-000000-12p10-10-7-5-3-3h5------------------------------------|

Riff6 X4
|-----------------------------------------------------------------------|
|-----------------------------------------------------------------------|
|-----------------------------------------------------------------------|
|--7~---3~---10~---5~---------------------------------------------------|

Fill4
|-----------------------------------------------------------------------|
|-----------------------------------------------------------------------|
|-----------------------------------------------------------------------|
|--0~-------------------------------------------------------------------|

Riif7 till the end (opens are not excatly right)
|-----------------------------------------------------------------------|
|-----------------------------------------------------------------------|
|-----------------------------------------------------------------------|
|--7p5-000000-7-000-5-000-7p5-0000--------------------------------------|

don't do anything for the harmonic the guitar does it sounds better
            
Hard to play? Try these video lessons and learn fast. | Correct




comments powered by Disqus
↑ Back to top | Tablatures and chords are parodies/interpretations of the original songs. You may use it for private study, scholarship, research or language learning purposes only