>
 >
This Lying World 1

This Lying World 1 Guitar Tabs

Unearth - This Lying World 1 chords, tabs, tablatures, lyrics

Guitar lessons | Add/correct | Request | Top 50 tabs Artists:  A B C D E F G H I J K L M N O P Q R S T U V W X Y Z 0-9

This Lying World 1 Guitar Tabs – Unearth

CD, Sheet music, Poster

Do you like This Lying World 1? Share with your friends now
Bass TabsTabsTabs v2
Album:The Oncoming Storm
Track#: 3
Tunning: Drop B (B-F#-B-E-G#-C#)

this is the tab for “This Lying World”
this is, without a doubt one of the best
Unearth songs. ever. so i thought it desereved a decent tab.
im pretty sure most of it is correct.
the breakdowns i’m 1000% sure they are absolutely accurate.
i indicate some of the palm mutes, just not the ones that
where insanely obvious

Unearth play seven string guitars,
and I, like most guitar players, dont have a 7 string

so i’ve converted the song into Drop B tunning,
which is bassically “Drop C” down one-half step

if you have any Questions/ Corrections,
please notify me.

Ratings/Comments are greatly appreciated


intro
Guitar I
||--------------------------------------------------|
||--------------------------------------------------|
||--------------------------------------------------|
||---6---6-----6---6------6---6-----6---6-----6---6-|
||-10--10----10--10-----10--10----10--10----10--10--|
||--------------------------------------------------|
 |
 |Guitar II
||--------------------------------------------------------------------------|
||--------------------------------------------------------------------------|
||--------------------------------------------------------------------------|
||--------------------------------------------------------------------------|
||--------------------------------------------------------------------------|
||----------------------0-0-0-0-0-0-0-0-0-0-0-000-0-0-0-0-0-0-0-0-0-0-0-000-|
pm                      * * * * * * * * * * * *** * * * * * * * * * * * ***


||-------------------------------------------------------------|
||-------------------------------------------------------------|
||-------------------------------------------------------------|
||---6---6-----6---6------6---6-----6---6-----6---6------6---6-|
||-10--10----10--10-----10--10----10--10----10--10-----10--10--|
||-------------------------------------------------------------|
 |
 |
||-------------------------------------------------------------|
||-------------------------------------------------------------|
||-------------------------------------------------------------|
||-------------------------------------------------------------|
||-------------------------------------------------------------|
||-0-0-0-0-0-0-0-0-0-0-0-000-0-0-0-0-0-0-0-0-0-0-0-000---------|
pm * * * * * * * * * * * ***


intro variation/Breakdown thing
Both Guitars
|--------------------------------------------------------------------|
|--------------------------------------------------------------------|
|--------------------------------------------------------------------|
|-----------6---6------------6---6---6---6------------6---6----------|x4
|-0-00-00-10--10---0-00-00-10--10--10--10---0-00-00-10--10---0-00-00-|
|-0-00-00----------0-00-00------------------0-00-00----------0-00-00-|


Pre-verse
|---------------------------------------------|
|---------------------------------------------|
|---------------------------------------------|
|-----------------------------------4---------|
|-0-00-00-----3-5---6-5---3-5---6-----3h5p3h5-|
|-0-00-00-0-00----00----00----00--0-----------|
|
|
|---------------------------------------------|
|---------------------------------------------|
|---------------------------------------------|
|---------0--------------------(0)------------|
|-0-00-00-0--------------------(0)------------|
|-0-00-00-0--------------------(0)------------|

Guitar I
|--------------------------------|
|--------------------------------|
|--------------------------------|
|--------------------------------|
|-----3-5---6-5----6-----8-------|
|-0-00----00-----6---0-8---0-7-8-|
|
|Guitar II
|------------------------------------|
|------------------------------------|
|------------------------------------|
|-0----------------------------------|
|-0--------------X\\\\\\-------------|
|-0--------------X\\\\---------------|


|-------------------------------------|
|-------------------------------------|
|-------------------------------------|
|---------------------------4---------|
|-----3-5---6-5---3-5---6-----3h5p3h5-|
|-0-00----00----00----00--0-----------|
|
|
|-------------------------------------|
|-------------------------------------|
|-------------------------------------|
|-0--------------------(0)------------|
|-0--------------------(0)------------|
|-0--------------------(0)------------|


|--------------------------------|
|--------------------------------|
|--------------------------------|
|--------------------------------|
|-----3-5---6-5----6-----8-------|
|-0-00----00-----6---0-8---0-7-8-|
|
|
|------------------------------------|
|------------------------------------|
|------------------------------------|
|-0----------------------------------|
|-0--------------X\\\\\\-------------|
|-0--------------X\\\\---------------|

Verse
Both guitars
|--------------------------------------------------------------------|
|--------------------------------------------------------------------|
|--------------------------------------------------------------------|
|---------------------------4----------------------------------------|x4
|-----3-5---6-5---3-5---6-----3h5p3h5-----3-5---6-5----6-----8-------|
|-0-00----00----00----00--0-----------0-00----00-----6---0-8---0-7-8-|

Fill
|-------------|
|-------------|
|-------------|
|-------------|
|--8-7----8-7-|
|-0---10-8----|


Chorus
 Guitar I
|------------------------------------------------------------|
|------------------------------------------------------------|
|------------------------------------------------------------|
|-----------5-7-5--5-5-5-5-7-8-7--7-7-8-10-8-7-8--7---7------|
|-8--8-8-8-8----------------------------------------10--10-8-|
|------------------------------------------------------------|
|
|Guitar II
|---------------------------------------------------------------|
|---------------------------------------------------------------|
|---------------------------------------------------------------|
|------------------------------------------7--------------------|
|-5--5-5-5-5-7-8-7--7-7-7-7-8-10-8--8-8-10---10-8-10--8-7-8-7-5-|
|---------------------------------------------------------------|
|
|Guitar III
|---------------------------------------------------------------|
|---------------------------------------------------------------|
|-7--------------9---------------10---------------7-------------|
|-7--------------7---------------8----------------5-------------|
|-5--------------7---------------8----------------5-------------|
|----------------7---------------8----------------5-------------|

|------------------------------------------------------------|
|------------------------------------------------------------|
|------------------------------------------------------------|
|-----------5-7-5--5-5-5-5-7-8-7--7-7-8-10-8-7-8--7---7------|
|-8--8-8-8-8----------------------------------------10--10-8-|
|------------------------------------------------------------|
|
|
|---------------------------------------------------------------|
|---------------------------------------------------------------|
|---------------------------------------------------------------|
|------------------------------------------7--------------------|
|-5--5-5-5-5-7-8-7--7-7-7-7-8-10-8--8-8-10---10-8-10--8-7-8-7-5-|
|---------------------------------------------------------------|
|
|
|---------------------------------------------------------------|
|---------------------------------------------------------------|
|-7--------------9---------------5----------------7-------------|
|-7--------------7---------------3----------------5-------------|
|-5--------------7---------------3----------------5-------------|
|----------------7---------------3----------------5-------------|

|------------------------------------------------------------|
|------------------------------------------------------------|
|------------------------------------------------------------|
|-----------5-7-5--5-5-5-5-7-8-7--7-7-8-10-8-7-8--7---7------|
|-8--8-8-8-8----------------------------------------10--10-8-|
|------------------------------------------------------------|
|
|
|---------------------------------------------------------------|
|---------------------------------------------------------------|
|---------------------------------------------------------------|
|------------------------------------------7--------------------|
|-5--5-5-5-5-7-8-7--7-7-7-7-8-10-8--8-8-10---10-8-10--8-7-8-7-5-|
|---------------------------------------------------------------|
|
|
|---------------------------------------------------------------|
|---------------------------------------------------------------|
|-7--------------9---------------10---------------7-------------|
|-7--------------7---------------8----------------5-------------|
|-5--------------7---------------8----------------5-------------|
|----------------7---------------8----------------5-------------|

|------------------------------------------------------------|
|------------------------------------------------------------|
|------------------------------------------------------------|
|-----------5-7-5--5-5-5-5-7-8-7--7-7-8-10-8-7-8--7---7------|
|-8--8-8-8-8----------------------------------------10--10-8-|
|------------------------------------------------------------|
|
|
|---------------------------------------------------------------|
|---------------------------------------------------------------|
|---------------------------------------------------------------|
|------------------------------------------7--------------------|
|-5--5-5-5-5-7-8-7--7-7-7-7-8-10-8--8-8-10---10-8-10--8-7-8-7-5-|
|---------------------------------------------------------------|
|
|
|---------------------------------------------------------------|
|---------------------------------------------------------------|
|-7--------------9---------------5----------------7-------------|
|-7--------------7---------------3----------------5-------------|
|-5--------------7---------------3----------------5-------------|
|----------------7---------------3----------------5-------------|

harmonized Fill
|---------------|
|---------------|
|---------------|
|---------------|
|---8-7-----8-7-|
|-0----10-8-----|
|
|
|---------------|
|---------------|
|---------------|
|---7-5-----7-5-|
|-------7-------|
|-0-------5-----|


Verse 2
Both Guitars
|--------------------------------------------------------------------|
|--------------------------------------------------------------------|
|--------------------------------------------------------------------|
|---------------------------4----------------------------------------|x2
|-----3-5---6-5---3-5---6-----3h5p3h5-----3-5---6-5----6-----8-------|
|-0-00----00----00----00--0-----------0-00----00-----6---0-8---0-7-8-|

Bridge 1
|--------------------------------|
|--------------------------------|
|--------------------------------|
|-7--7-7-7-7-7-7-7-7-7-7-7-------|
|-5--5-5-5-5-5-5-5-5-5-5-5--12\\-|
|---------------------------12\\-|
pm   * * * * * * *   * * *


Harmonized section (x4)
Giutar I
|-------------------------------------------------------------------|
|-------------------------------------------------------------------|
|-------------------------------------------------------------------|
|-------------------------------------------------------------------|
|-8-5-8-0-0-0-0-0-8-5-8-0-7-3-7-0-8-5-8-0-0-0-0-0-8-5-8-0-10-6-10-0-|
|-------0-0-0-0-0-------0-------0-------0-0-0-0-0-------0---------0-|
|
|Guitar II
|----------------------------------------------------------------------------------|
|----------------------------------------------------------------------------------|
|----------------------------------------------------------------------------------|
|----------------------------------------------------------------------------------|
|-12-10-12-0-0-0-0-0-12-10-12-0-10-8-10-0-12-10-12-0-0-0-0-0-12-10-12-0-13-12-13-0-|
|----------0-0-0-0-0----------0---------0----------0-0-0-0-0----------0----------0-|


Bridge 2
Both Guitars (trem. picked)
|--------------------------------------|
|--------------------------------------|
|--------------------------------------|x2
|--------------------------------------|
|-5----7-----8-----7-----10-8-7-8------|
|--------------------------------------|


Guitar I(trem Picked)
|--------------------------------------|
|--------------------------------------|
|--------------------------------------|
|--------------------------------------|
|-5----7-----8-----7-----10-8-7-8------|
|--------------------------------------|
|
|Guitar II
|--------------------------------------|
|--------------------------------------|
|--------------------------------------|
|-7----5-----3-----2-----3--5----------|
|-5----3-----1-----0-----1--3----------|
|--------------------------------------|


|--------------------------------------|
|--------------------------------------|
|--------------------------------------|
|---------------------------------7----|
|-5----7-----8-----7-----10-8-7-8-5----|
|--------------------------------------|
|
|
|--------------------------------------|
|--------------------------------------|
|--------------------------------------|
|--------------------------------------|
|-0----2-----3-----2-----5-3-2-3-0-----|
|-0----2-----3-----2-----5-3-2-3-0-----|

Breakdown (x4)
Guitar I
|------------------------------------------------------------------------------------|
|------------------------------------------------------------------------------------|
|----------7-----------------------------------------7-------------------------------|
|----------x-----------------------------------------x---------7p5---5~--------------|
|-0000-00--5--0000-----000000-6p5---3~-5----0000-00--5--000000-----7-----7~--6~--3-5-|
|-0000-00-----0000-----000000-----0---------0000-00-----000000-------------------3-5-|
|
|Guitar II
|------------------------------------------------------------------------------------|
|------------------------------------------------------------------------------------|
|----------7-----------------------------------------7-------------------------------|
|----------x-----------------------------------------x-------------------------------|
|-0000-00--5--0000-----000000-6p5---3~-5----0000-00--5--000000-5p3---3~----------3-5-|
|-0000-00-----0000-----000000-----0---------0000-00-----000000-----7-----7~--6~--3-5-|


Both Guitars
|-------------------------------------------------------------------------|
|-------------------------------------------------------------------------|
|-------------------------------------------------------------------------|
|-0----------------------------(0)----------------------------------------|
|-0----------------------------(0)---------------------------X\\\\\\------|
|-0----------------------------(0)---------------------------X\\\\\\\\----|


Bridge 2
Guitar I
|------------------------------------------------------------------------------------------------|
|------------------------------------------------------------------------------------------------|
|-----2---2-------2---2--------2h3p2-------2h3p2-------5---5-------5---5-------------------------|
|---3---3---3---3---3---3----3-------3---3-------3---5---5---5---5---5---5----2--3---5-3-2-0--0--|
|-5-----------5-----------1------------1-----------3-----------3-----------00--0---0-------------|
|------------------------------------------------------------------------------------------------|
|
|Guitar II
|------------------------------------------------------------------------------------------------|
|------------------------------------------------------------------------------------------------|
|-7----------------------10-----------------------14----------------------12---------------------|
|-x----------------------x------------------------x-----------------------x----------------------|
|-5----------------------8------------------------12----------------------10---------------------|
|------------------------------------------------------------------------------------------------|
|
|Guitar III
|------------------------------------------------------------------------------------------------|
|------------------------------------------------------------------------------------------------|
|-7----------------------3------------------------10----------------------9----------------------|
|-7----------------------3------------------------10----------------------10---------------------|
|-5----------------------1------------------------8-----------------------7----------------------|
|------------------------------------------------------------------------------------------------|

|------------------------------------------------------------------------------------------------|
|------------------------------------------------------------------------------------------------|
|-----2---2-------2---2--------2h3p2-------2h3p2-------5---5-------5---5-------------------------|
|---3---3---3---3---3---3----3-------3---3-------3---5---5---5---5---5---5----2--3---5-3-2-0--0--|
|-5-----------5-----------1------------1-----------3-----------3-----------00--0---0-------------|
|------------------------------------------------------------------------------------------------|
|
|
|------------------------------------------------------------------------------------------------|
|------------------------------------------------------------------------------------------------|
|-7----------------------10-----------------------12----------------------10--------9------------|
|-x----------------------x------------------------x-----------------------x---------x------------|
|-5----------------------8------------------------10----------------------8---------7------------|
|------------------------------------------------------------------------------------------------|
|
|
|------------------------------------------------------------------------------------------------|
|------------------------------------------------------------------------------------------------|
|-7----------------------3------------------------10----------------------9----------------------|
|-7----------------------3------------------------10----------------------10---------------------|
|-5----------------------1------------------------8-----------------------7----------------------|
|------------------------------------------------------------------------------------------------|

|------------------------------------------------------------------------------------------------|
|------------------------------------------------------------------------------------------------|
|-----2---2-------2---2--------2h3p2-------2h3p2-------5---5-------5---5-------------------------|
|---3---3---3---3---3---3----3-------3---3-------3---5---5---5---5---5---5----2--3---5-3-2-0--0--|
|-5-----------5-----------1------------1-----------3-----------3-----------00--0---0-------------|
|------------------------------------------------------------------------------------------------|
|
|
|-----------------------------------------------------------------------------------------------------|
|-----------------------------------------------------------------------------------------------------|
|-----5---5-------5---5-------5h7p5-------5h7p5----10-9-7---------------------10---10-------10---10---|
|---7---7---7---7---7---7---7-------7---7-------7---------10-8-7-------5----9----9----9---9----9----9-|
|-8-----------8-----------5-----------5--------------------------5-7-8----8-------------8-------------|
|-----------------------------------------------------------------------------------------------------|
|
|
|------------------------------------------------------------------------------------------------|
|------------------------------------------------------------------------------------------------|
|-7----------------------3------------------------10----------------------9----------------------|
|-7----------------------3------------------------10----------------------10---------------------|
|-5----------------------1------------------------8-----------------------7----------------------|
|------------------------------------------------------------------------------------------------|


|------------------------------------------------------------------------------------------------|
|------------------------------------------------------------------------------------------------|
|-----2---2-------2---2--------2h3p2-------2h3p2-------5---5-------5---5-------------------------|
|---3---3---3---3---3---3----3-------3---3-------3---5---5---5---5---5---5----2--3---5-3-2-0--0--|
|-5-----------5-----------1------------1-----------3-----------3-----------00--0---0-------------|
|------------------------------------------------------------------------------------------------|
|
|
|-----------------------------------------------------------------------------------------------------|
|-----------------------------------------------------------------------------------------------------|
|-----5---5-------5---5-------5h7p5-------5h7p5----10-9-7---------------------10---10-------10---10---|
|---7---7---7---7---7---7---7-------7---7-------7---------10-8-7-------5----9----9----9---9----9----9-|
|-8-----------8-----------5-----------5--------------------------5-7-8----8-------------8-------------|
|-----------------------------------------------------------------------------------------------------|
|
|
|------------------------------------------------------------------------------------------------|
|------------------------------------------------------------------------------------------------|
|-7----------------------3------------------------10----------------------9----------------------|
|-7----------------------3------------------------10----------------------10---------------------|
|-5----------------------1------------------------8-----------------------7----------------------|
|------------------------------------------------------------------------------------------------|


Almost Best Part (aka pre-breakdown)
Guitar I
|---------------------------------------------------------------|
|---------------------------------------------------------------|
|---------------------------------------------------------------|
|-0-------------------------------------------------------------|
|-0--0-0-0-0-0-6-0-0-0-5-0-0-0-3-1-0-0-0-0-0-0-6-0-0-0-3-0-0-5*-|
|-0--0-0-0-0-0-6-0-0-0-5-0-0-0-3-1-0-0-0-0-0-0-6-0-0-0-3-0-0----|
|
|Guitar II
|-------------------------------------------------------------------|
|-------------------------------------------------------------------|
|-------------------------------------------------------------------|
|-0------------------------------(0)--------------------------------|
|-0------------------------------(0)--------------------------------|
|-0------------------------------(0)-------------------12\\\\\\-----|


|----------------------------------------------------------------|
|----------------------------------------------------------------|
|----------------------------------------------------------------|
|-1-0------------------------------------------------------------|
|-1-0-0-0-0-0-0-6-0-0-0-5-0-0-0-3-1-0-0-0-0-0-0-6-0-0-0-3--------|
|-1-0-0-0-0-0-0-6-0-0-0-5-0-0-0-3-1-0-0-0-0-0-0-6-0-0-0-3--------|
|
|
|----------------------------------------------------------------|
|----------------------------------------------------------------|
|----------------------------------------------------------------|
|-1-0------------------------------------------------------------|
|-1-0-----------------------------1-0-0-0-0-0-0-6-0-0-0-3--------|
|-1-0-----------------------------1-0-0-0-0-0-0-6-0-0-0-3--------|

BREAKDOWN!!!
both guitars
|-----------------------------------------------------------------|
|-----------------------------------------------------------------|
|-----------------------------------------------------------------|
|-1-0-------------------------------------------------------------|x3
|-1-0--0-0-0-0-0-6-0-0-0-5-0-0-0-3-1-0-0-0-0-0-0-6-0-0-0-3-0-0-5*-|
|-1-0--0-0-0-0-0-6-0-0-0-5-0-0-0-3-1-0-0-0-0-0-0-6-0-0-0-3-0-0----|

|---------------------------------------------------------------------|
|---------------------------------------------------------------------|
|---------------------------------------------------------------------|
|-1-0-----------------------------------------------------------------|
|-1-0--0-0-0-0-0-6-0-0-0-5-0-0-0-3-1-0-0-0-0-0-0-6-0-0-0-3-0-0-5--0-0-|
|-1-0--0-0-0-0-0-6-0-0-0-5-0-0-0-3-1-0-0-0-0-0-0-6-0-0-0-3-0-0-5--0-0-|





Comments


Popular Unearth tabs & chords
Grave Of Opportunity Bass Tabs
Shattered By The Sun Bass Tabs
Aries Intro Tabs
Chosen Tabs
Cutman Tabs
March Of The Mutes 2 Tabs
My Will Be Done Intro Tabs
This Glorious Nightmare 1 Tabs
This Lying World Tabs
This Lying World Intro Tabs


Song lyrics



↑ Back to top | Tablatures and chords are parodies/interpretations of the original songs. You may use it for private study, scholarship, research or language learning purposes only
© 2014 AZChords.com Contact us | Privacy policy | DMCA | Add/correct tabs | Request tabs | Top 50 tabs