>
 >
Failure 1

Failure 1 Guitar Tabs

Unearth - Failure 1 chords, tabs, tablatures, lyrics

Guitar lessons | Add/correct | Request | Top 50 tabs Artists:  A B C D E F G H I J K L M N O P Q R S T U V W X Y Z 0-9

Failure 1 Guitar Tabs – Unearth

CD, Sheet music, Poster

Do you like Failure 1? Share with your friends now
TabsTabs v2
-------------------------------------------------------------------------------
FAILURE - Unearth
-------------------------------------------------------------------------------


Reason why I thought this was necessary to tab was due to the fact that i haven't seen 
accurate tab or attempt at the intro as well as other incomplete sections of the song. 
muting method may look a little complex but that was the only way to align them correctly.

0:00 play 4x
e|6h9p6----------9h13p9\6h9p6-------7h11p7-----------------------------------|
b|-----7-------10------------7-----9-----------------------------------------|
G|------6----11---------------6---9------------------------------------------|
D|-------8-11------------------8-9-------------------------------------------|
A|--------9---------------------9--------------------------------------------|
E|---------------------------------------------------------------------------|
B|---------------------------------------------------------------------------|
|
E|---------------------------------------------------------------------------|
b|---------------------------------------------------------------------------|
G|---------------------------------------------------------------------------|
D|---------------------------------------------------------------------------|
A|---------------------------------------------------------------------------|
E|9--------------------------------\3/---------------------------------------|
B|7--------------------------------\1/---------------------------------------|

0:09
RIFF A
 PM______--------------------______----------------------------------|___________
e|-------------------------------------------------------------------|
b|-------------------------------------------------------------------|
G|-------------------------------------------------------------------|
D|-------------------------------------------------------------------|
A|-------7-5-7-10-9-7-7h9p7--------7-9h10p9--------------12-10-9h10--|
E|000000--------------------888888----------101010101010-------------|
B|-------------------------------------------------------------------|
 |---------------------------______----------------------------------|___________
e|-------------------------------------------------------------------|
b|-------------------------------------------------------------------|
G|-------------------------------------------------------------------|
D|-------------------------------------------------------------------|
A|-------------------------------------------------------------------|
E|---------------------------------10-10-10--------------12-12-12----|
B|--------------------------888888-8--8--8--101010101010-10-10-10----|


PM______
e|---------------------------------------------------------------------------|
b|---------------------------------------------------------------------------|
G|---------------------------------------------------------------------------|
D|-------9-7------9--7-7h9p7-------------------------------------------------|
A|-----------10-9-------------7-9-10/12-10-9-10-9-7-9-7-5--------------------|
E|000000---------------------------------------------------------------------|
B|---------------------------------------------------------------------------|
 |______
e|---------------------------------------------------------------------------|
b|---------------------------------------------------------------------------|
G|---------------------------------------------------------------------------|
D|---------------------------------------------------------------------------|
A|-------7-5-7-12-10-9-9h10p9------------------------------------------------|
E|000000----------------------2---------3------------------------------------|
B|----------------------------0---------1------------------------------------|

PM______--------------------______-----------------------------------|___________
e|-------------------------------------------------------------------|
b|-------------------------------------------------------------------|
G|-------------------------------------------------------------------|
D|-------------------------------------------------------------------|
A|-------7-5-7-10-9-7-7h9p7--------7-9h10p9--------------12-10-9h10--|
E|000000--------------------888888----------101010101010-------------|
B|-------------------------------------------------------------------|
 |______---------------------______----------------------------------|___________
e|-------------------------------------------------------------------|
b|-------------------------------------------------------------------|
G|-------------------------------------------------------------------|
D|-------9-7------9-7-7h9p7------------------------------------------|
A|-----------10-9----------------------------------------------------|
E|000000---------------------------10-10-10--------------12-12-12----|
B|--------------------------888888-8--8--8--101010101010-10-10-10----|


PM______
e|---------------------------------------------------------------------------|
b|---------------------------------------------------------------------------|
G|---------------------------------------------------------------------------|
D|-------9-7------9--7-7h9p7-------------------------------------------------|
A|-----------10-9-------------7-9-10/12-10-9-10-9-7-9-7-5--------------------|
E|000000---------------------------------------------------------------------|
B|---------------------------------------------------------------------------|
|______
e|---------------------------------------------------------------------------|
b|---------------------------------------------------------------------------|
G|---------------------------------------------------------------------------|
D|---------------------------------------------------------------------------|
A|-------7-5-7-12-10-9-9h10p9------------------------------------------------|
E|000000----------------------2---------3------------------------------------|
B|----------------------------0---------1------------------------------------|

END OF RIFF A

RIFF B
0:28
PM--__--------__-------1.------------2.----------------------------_-----------|
e|--------------------|--------------|-----------------------------------------|
b|--------------------|--------------|-----------------------------------------|
G|--------------------|--------------|-----------------------------------------|
D|9-------------------|--------------|-----------------------------------------|
A|7----9h10p9----0-2--|3-7-5-10-9-5--|3p0-7p0-9p0-12p0-10p0-9h10p9-5-7---------|
E|--------------------|--------------|-----------------------------------------|
B|--00--------00------|--------------|-----------------------------------------|

0:35
PM--__--------__------1.-------------2.----------------------------------------|
e|--------------------|--------------|-----------------------------------------|
b|--------------------|--------------|-----------------------------------------|
G|--------------------|--------------|-----------------------------------------|
D|5----7h9p7-----0-2--|3-5-3-9--7-5--|3p0-5p0-7p0-10p0--9p0-7h9p7--5-7---------|
A|--------------------|--------------|-----------------------------------------|
E|--------------------|--------------|-----------------------------------------|
B|--00--------00------|--------------|-----------------------------------------|

|--__--------__-------1.------------2.----------------------------_------------|
e|--------------------|--------------|-----------------------------------------|
b|--------------------|--------------|-----------------------------------------|
G|--------------------|--------------|-----------------------------------------|
D|--------------------|--------------|-----------------------------------------|
A|7----9h10p9----0-2--|3-7-5-10-9-5--|3p0-7p0-9p0-12p0-10p0-9h10p9-5-7---------|
E|--------------------|--------------|-----------------------------------------|
B|--00--------00------|--------------|-----------------------------------------|

END OF RIFF B

0:43 REPEAT RIFF A


1:02
e|---------------------------------------------------------------------------|
b|---------------------------------------------------------------------------|
G|---------------------------------------------------------------------------|
D|---------------------------------------------------------------------------|
A|0--------------------------------------------------------------------------|
E|0--------------------------------------------------------------------------|
B|0--------------------------------------------------------------------------|


e|---------------------------------------------------------------------------|
b|---------------------------------------------------------------------------|
G|---------------------------------------------------------------------------|
D|---------------------------------------------------------------------------|
A|---------------------------------------------------------------------------|
E|8p7-------8p7------555555-8p7-------8p7------101010101010------------------|
B|---000000----000000----------000000----000000------------------------------|


e|---------------------------------------------------------------------------|
b|---------------------------------------------------------------------------|
G|---------------------------------------------------------------------------|
D|---------------------------------------------------------------------------|
A|---------------------------------------------------------------------------|
E|8p7-------8p7------555555-8p7-------8p7------10----------------------------|
B|---000000----000000----------000000----000000------------------------------|
|
e|---------------------------------------------------------------------------|
b|---------------------------------------------------------------------------|
G|---------------------------------------------------------------------------|
D|---------------------------------------------------------------------------|
A|----------------------------pick scrape------------------------------------|
E|--------------------------///////////////////------------------------------|
B|--------------------------//////////////////-------------------------------|


1:19
PM---______---____----___----------______-------------------------PLAY---------| 2X
e|-----------------------------------------------------------------------------|
b|-----------------------------------------------------------------------------|
G|------------------------------------------------------7-8-11-8-7-------------|
D|--------------------------------------------------7-8------------8-7---------|
A|------------------------------------------------9--------------------9-------|
E|8p7------8p7----5-8-----12-11-8p7-------8p7p5/7------------------------------|
B|---000000---000-----000----------000000--------------------------------------|

PM---______---___-----___----------______-------------------------PLAY---------| 2X
e|-----------------------------------------------------------------------------|
b|-----------------------------------------------------------------------------|
G|------------------------------------------------------7-8-11-8-7-------------|
D|--------------------------------------------------7-8------------8-7---------|
A|------------------------------------------------9--------------------9-------|
E|8p7------8p7----5-8-----12-11-8p7-------8p7p5/7------------------------------|
B|---000000---000-----000----------000000--------------------------------------|
|----______---___-----___------------------------------------------------------|_____
e|-----------------------------------------------------------------------------|
b|-----------------------------------------------------------------------------|
G|-----------------------------------------------------------------------------|
D|------------------------------------------------------7-8-10-8-7-------------|
A|--------------------------------------------------7-8------------8-7---------|
E|8p7------8p7----5-8-----12-11-8p7---------------9--------------------9-------|
B|---000000---000-----000----------000000-8p7p5/7------------------------------|


1:44

PM_______________________ 1.___________-----_____------------------------------|
e|-------------------------|---------------------------------------------------|
b|-------------------------|---------------------------------------------------|
G|----play-3x-before-1-----|---------------------------------------------------|
D|----play-1x-before-2-----|---------------------------------------------------|
A|----play-1x-before-3-----|-----------------------7-5-------------------------|
E|-------------------------|------------8p7-5-7-8-----8--7h8p7-----------------|
B|000000-0000-0000000000---|000000-0000----------------------------------------|
 |--------------------------____________-----______----------------------------|
e|-------------------------|---------------------------------------------------|
b|-------------------------|---------------------------------------------------|
G|-------------------------|---------------------------------------------------|
D|-------------------------|-----------------------9-7-------------------------|
A|-------------------------|-----------10p9-7-9-10----10-9h10p9----------------|
E|-------------------------|---------------------------------------------------|
B|-------------------------|000000-0000----------------------------------------|

2.
PM________________
e|------------------------------|
b|------------------------------|
G|------------------------------|
D|------------------------------|
A|------------------------------|
E|-----------------{5}~~~-------|
B|000000-0000-0000--------------|

3.
PM___________
e|--------------------------------------|
b|--------------------------------------|
G|--------------------------------------|
D|-----------12--10--9------------------|
A|----------------------12-10-9---------|
E|--------------------------------------|
B|000000-0000---------------------------|
 |
e|--------------------------------------|
b|--------------------------------------|
G|--------------------------------------|
D|------------9--7----------------------|
A|------------------10--9--7------------|
E|----------------------------10--------|
B|000000-0000---------------------------|

2:08 REPEAT RIFF B


2:24 PLAY 2X
e|---------------------------------------------------------------------------|
b|---------------------------------------------------------------------------|
G|9----12-11-12--7----14-12-14--9----12-11-12-9-11-12-12-12-12-9-------------|
D|X----X--X--X---X----X--X--X---X----X--X--X--X-X--X--X--X--X--X-------------|
A|7----10-9--10--5----12-10-12--7----10-9--10-7-9--10-10-9--10-7-------------|
E|---------------------------------------------------------------------------|
B|---------------------------------------------------------------------------|
|
e|---------------------------------------------------------------------------|
b|---------------------------------------------------------------------------|
G|---------------------------------------------------------------------------|
D|---------------------------------------------------------------------------|
A|2--------------------------------------------------------------------------|
E|0--------------2--------------3-------------2-------3----------------------|
B|---------------0--------------1-------------0-------1----------------------|

2:39 PLAY 2X
e|---------------------------------------------------------------------------|
b|---------------------------------------------------------------------------|
G|---------------------------------------------------------------------------|
D|---------------------------------------------------------------------------|
A|7----10-9--10--5----12-10-12--7----10-9--10-7-9--10-10-9--10-7-------------|
E|---------------------------------------------------------------------------|
B|---------------------------------------------------------------------------|
|
e|---------------------------------------------------------------------------|
b|---------------------------------------------------------------------------|
G|---------------------------------------------------------------------------|
D|5----9--7--9--------10-9--7--------9--7-----7-9--10-9--7--9--7-------------|
A|---------------7--------------10---------10--------------------------------|
E|---------------------------------------------------------------------------|
B|---------------------------------------------------------------------------|
|
e|---------------------------------------------------------------------------|
b|---------------------------------------------------------------------------|
G|---------------------------------------------------------------------------|
D|---------------------------------------------------------------------------|
A|2--------------------------------------------------------------------------|
E|0--------------2--------------3-------------2-------3----------------------|
B|---------------0--------------1-------------0-------1----------------------|


2:54 PLAY 2X
PM______-_______-_______-______------------------------------------------------|
e|-----------------------------------------------------------------------------|
b|-----------------------------------------------------------------------------|
G|-----------------------------------------------------------------------------|
D|-----------------------------------------------------------------------------|
A|-----------------------------------------------------------------------------|
E|------7-------5-------8\------3-6--5-----------------------------------------|
B|0-000---0-000---0-000---0-000------------------------------------------------|
 |_______-_______-______--_______----------------------------------------------|
e|-----------------------------------------------------------------------------|
b|-----------------------------------------------------------------------------|
G|-----------------------------------------------------------------------------|
D|-----------------------------------------------------------------------------|
A|------9-------7------10\------7-10-9-----------------------------------------|
E|-----------------------------------------------------------------------------|
B|0-000---0-000---0-000---0-000------------------------------------------------|


3:01
PM_________________________________
e|---------------------------------------------------------------------------|
b|---------------------------------------------------------------------------|
G|---------------------------------------------------------------------------|
D|---------------------------------------------------------------------------|
A|---------------------------------------------------------------------------|
E|---------------------------------------------------------------------------|
B|0-000---0-000---0-000---0-000-000------------------------------------------|


PM_____________________________
e|---------------------------------------------------------------------------|
b|---------------------------------------------------------------------------|
G|---------------------------------------------------------------------------|
D|---------------------------------------------------------------------------|
A|---------------------------------------------------------------------------|
E|------------------------------3-6-5----------------------------------------|
B|0-000---0-000---0-000---0-000----------------------------------------------|


| / slide up
| \ slide down
| h hammer-on
| p pull-off
| ~ vibrato
| + harmonic
| x Mute note
===============================================================================





Comments


Popular Unearth tabs & chords
My Will Be Done Bass Tabs
Aries Intro Tabs
Big Bear And The Hour Of Chaos 1 Tabs
Bloodlust Of The Human Condition Tabs
Grave Of Opportunity Tabs
Last Wish Tabs
Ruination Of The Lost Tabs
The Charm Tabs
This Lying World Intro Tabs
Zombie Autopilot Tabs


Song lyrics



↑ Back to top | Tablatures and chords are parodies/interpretations of the original songs. You may use it for private study, scholarship, research or language learning purposes only
© 2014 AZChords.com Contact us | Privacy policy | DMCA | Add/correct tabs | Request tabs | Top 50 tabs