>
 >
Aries

Aries Guitar Tabs

Unearth - Aries chords, tabs, tablatures, lyrics

Guitar lessons | Add/correct | Request | Top 50 tabs Artists:  A B C D E F G H I J K L M N O P Q R S T U V W X Y Z 0-9

Aries Guitar Tabs – Unearth

CD, Sheet music, Poster

Do you like Aries? Share with your friends now
Tabs
Unearth - Aries  
Standard Tuning                                    


                                                                  
Guitar 1

     E  E  Q    E  E  Q       E  E  E  Q    E  Q       E  E  Q    E  E  Q     
E||------------------------|------------------------|------------------------|
B||-----3--2----L--3--2----|--L--3--2--L----3--2----|-----3--2----L--3--2----|
G||------------------------|------------------------|------------------------|
D||--5---------------------|------------------------|--4---------------------|
A||------------------------|------------------------|------------------------|
E||------------------------|------------------------|------------------------|


  W                   E  E  Q    E  E  Q       E  E  E  Q    E  Q     
-------------------|------------------------|------------------------|
--3----------------|-----3--2----L--3--2----|--L--3--2--L----3--2----|
--2----------------|--0---------------------|------------------------|
--0----------------|------------------------|------------------------|
-------------------|------------------------|------------------------|
-------------------|------------------------|------------------------|


  E  E  Q    E  E  Q       W                   E  E  Q    E  E  Q     
------------------------|-------------------|------------------------|
-----3--2----L--3--2----|--3----------------|-----3--2----L--3--2----|
------------------------|--2----------------|--0---------------------|
--4---------------------|--0----------------|------------------------|
------------------------|-------------------|------------------------|
------------------------|-------------------|------------------------|


  E  E  E  Q    E  Q       E  E  Q    E  E  Q       W                 
------------------------|------------------------|-------------------|
--L--3--2--L----3--2----|-----3--2----L--3--2----|--3----------------|
------------------------|------------------------|--2----------------|
------------------------|--4---------------------|--0----------------|
------------------------|------------------------|-------------------|
------------------------|------------------------|-------------------|


  E  E  Q    E  E  Q       E  E  E  Q    E  Q       E  E  Q    E  E  Q     
------------------------|------------------------|------------------------|
-----3--2----L--3--2----|--L--3--2--L----3--2----|-----3--2----L--3--2----|
--0---------------------|------------------------|------------------------|
------------------------|------------------------|--4---------------------|
------------------------|------------------------|------------------------|
------------------------|------------------------|------------------------|


  W                   E  E  E  E  E  E  E  E     E  E  E  E  E  E  E  E   
-------------------|--5-----5-----5-----5-----|--5-----5-----5-----5-----|
--3----------------|-----3-----3-----3-----3--|-----3-----3-----3-----3--|
--2----------------|--------------------------|--------------------------|
--0----------------|--------------------------|--------------------------|
-------------------|--------------------------|--------------------------|
-------------------|--------------------------|--------------------------|


  E  E  E  E  E  E  E  E     E  E  E  E  E  E  E  E     E  E  Q    E  E  Q     
--5-----5-----5-----5-----|--5-----5-----5-----5-----|------------------------|
-----3-----3-----3-----3--|-----3-----3-----3-----3--|-----3--2----L--3--2----|
--------------------------|--------------------------|--0---------------------|
--------------------------|--------------------------|------------------------|
--------------------------|--------------------------|------------------------|
--------------------------|--------------------------|------------------------|


  E  E  E  Q    E  Q       E  E  Q    E  E  Q       W                 
------------------------|------------------------|-------------------|
--L--3--2--L----3--2----|-----3--2----L--3--2----|--3----------------|
------------------------|------------------------|--2----------------|
------------------------|--4---------------------|--0----------------|
------------------------|------------------------|-------------------|
------------------------|------------------------|-------------------|


  E  E  Q    E  E  Q       E  E  E  Q    E  Q       E  E  Q    E  E  Q     
------------------------|------------------------|------------------------|
-----3--2----L--3--2----|--L--3--2--L----3--2----|-----3--2----L--3--2----|
--0---------------------|------------------------|------------------------|
------------------------|------------------------|--4---------------------|
------------------------|------------------------|------------------------|
------------------------|------------------------|------------------------|


  W                   E  E  Q    E  E  Q       E  E  E  Q    E  Q     
-------------------|------------------------|------------------------|
--3----------------|-----3--2----L--3--2----|--L--3--2--L----3--2----|
--2----------------|--0---------------------|------------------------|
--0----------------|------------------------|------------------------|
-------------------|------------------------|------------------------|
-------------------|------------------------|------------------------|


  E  E  Q    E  E  Q       W                   E  E  Q    E  E  Q     
------------------------|-------------------|------------------------|
-----3--2----L--3--2----|--3----------------|-----3--2----L--3--2----|
------------------------|--2----------------|--0---------------------|
--4---------------------|--0----------------|------------------------|
------------------------|-------------------|------------------------|
------------------------|-------------------|------------------------|


  E  E  E  Q    E  Q       E  E  Q    E  E  Q       W                 
------------------------|------------------------|-------------------|
--L--3--2--L----3--2----|-----3--2----L--3--2----|--3----------------|
------------------------|------------------------|--2----------------|
------------------------|--4---------------------|--0----------------|
------------------------|------------------------|-------------------|
------------------------|------------------------|-------------------|


-------------------||
-------------------||
-------------------||
-------------------||
-------------------||
-------------------||


Guitar 2

     E  E  E  E  E  E  E  E     E  E  E  E  E  E  E  E   
E||--------------------------|--------------------------|
B||--------------------------|--------------------------|
G||--0--2--0--2--0--2--0--2--|--0--2--0--2--0--2--0--2--|
D||--------------------------|--------------------------|
A||--------------------------|--------------------------|
E||--------------------------|--------------------------|


  E  E  E  E  E  E  E  E     W                   E  E  E  E  E  E  E  E   
--------------------------|-------------------|--------------------------|
-----0-----0-----0-----0--|--3----------------|--------------------------|
--------------------------|--2----------------|--0--2--0--2--0--2--0--2--|
--4-----4-----4-----4-----|--0----------------|--------------------------|
--------------------------|-------------------|--------------------------|
--------------------------|-------------------|--------------------------|


  E  E  E  E  E  E  E  E     E  E  E  E  E  E  E  E     W                 
--------------------------|--------------------------|-------------------|
--------------------------|-----0-----0-----0-----0--|--3----------------|
--0--2--0--2--0--2--0--2--|--------------------------|--2----------------|
--------------------------|--4-----4-----4-----4-----|--0----------------|
--------------------------|--------------------------|-------------------|
--------------------------|--------------------------|-------------------|


  E  E  E  E  E  E  E  E     E  E  E  E  E  E  E  E   
--------------------------|--------------------------|
--------------------------|--------------------------|
--0--2--0--2--0--2--0--2--|--0--2--0--2--0--2--0--2--|
--------------------------|--------------------------|
--------------------------|--------------------------|
--------------------------|--------------------------|


  E  E  E  E  E  E  E  E     W                   E  E  E  E  E  E  E  E   
--------------------------|-------------------|--------------------------|
-----0-----0-----0-----0--|--3----------------|--------------------------|
--------------------------|--2----------------|--0--2--0--2--0--2--0--2--|
--4-----4-----4-----4-----|--0----------------|--------------------------|
--------------------------|-------------------|--------------------------|
--------------------------|-------------------|--------------------------|


  E  E  E  E  E  E  E  E     E  E  E  E  E  E  E  E     W                 
--------------------------|--------------------------|-------------------|
--------------------------|-----0-----0-----0-----0--|--3----------------|
--0--2--0--2--0--2--0--2--|--------------------------|--2----------------|
--------------------------|--4-----4-----4-----4-----|--0----------------|
--------------------------|--------------------------|-------------------|
--------------------------|--------------------------|-------------------|

  H        E  Q.         E  E  E  E  E  E  E  E     E  E  E  E  E  E  E  E   
--------------3S------|--------------------------|--------------------------|
----------------------|--------------------------|--------------------------|
----------------------|--0--2--0--2--0--2--0--2--|--0--2--0--2--0--2--0--2--|
----------------------|--------------------------|--------------------------|
----------------------|--------------------------|--------------------------|
----------------------|--------------------------|--------------------------|


  E  E  E  E  E  E  E  E     W                   E  E  E  E  E  E  E  E   
--------------------------|-------------------|--------------------------|
-----0-----0-----0-----0--|--3----------------|--------------------------|
--------------------------|--2----------------|--0--2--0--2--0--2--0--2--|
--4-----4-----4-----4-----|--0----------------|--------------------------|
--------------------------|-------------------|--------------------------|
--------------------------|-------------------|--------------------------|


  E  E  E  E  E  E  E  E     E  E  E  E  E  E  E  E     W                 
--------------------------|--------------------------|-------------------|
--------------------------|-----0-----0-----0-----0--|--3----------------|
--0--2--0--2--0--2--0--2--|--------------------------|--2----------------|
--------------------------|--4-----4-----4-----4-----|--0----------------|
--------------------------|--------------------------|-------------------|
--------------------------|--------------------------|-------------------|


  E  E  E  E  E  E  E  E     E  E  E  E  E  E  E  E   
--------------------------|--------------------------|
--------------------------|--------------------------|
--0--2--0--2--0--2--0--2--|--0--2--0--2--0--2--0--2--|
--------------------------|--------------------------|
--------------------------|--------------------------|
--------------------------|--------------------------|


  E  E  E  E  E  E  E  E     W                   E  E  E  E  E  E  E  E   
--------------------------|-------------------|--------------------------|
-----0-----0-----0-----0--|--3----------------|--------------------------|
--------------------------|--2----------------|--0--2--0--2--0--2--0--2--|
--4-----4-----4-----4-----|--0----------------|--------------------------|
--------------------------|-------------------|--------------------------|
--------------------------|-------------------|--------------------------|


  E  E  E  E  E  E  E  E     E  E  E  E  E  E  E  E     W                 
--------------------------|--------------------------|-------------------|
--------------------------|-----0-----0-----0-----0--|--3----------------|
--0--2--0--2--0--2--0--2--|--------------------------|--2----------------|
--------------------------|--4-----4-----4-----4-----|--0----------------|
--------------------------|--------------------------|-------------------|
--------------------------|--------------------------|-------------------|


-------------------||
-------------------||
-------------------||
-------------------||
-------------------||
-------------------||




Duration Legend
---------------
W - whole
H - half
Q - quarter
E - 8th
S - 16th
T - 32nd
X - 64th
. - note dotted
|-n-|  - n-tuplets


Tablature Legend
----------------
L - tied note
x - dead note
g - grace note
(n) - ghost note
> - accentuded note
NH - natural harmonic
AH - artificial harmonic
TH - tapped harmonic
SH - semi harmonic
PH - pitch harmonic
h - hammer on
p - pull off
b - bend
br - bendRelease
pb - preBend
pbr - preBendRelease
brb - bendReleaseBend
\n/ - tremolo bar dip
\n - tremolo bar dive
-/n - tremolo bar Release up
/n\ - tremolo bar inverted dip
/n - tremolo bar return
-\n - tremolo bar Release down
S - shift slide
s - legato slide
/ -  slide into from below or out of upwards
\ -  slide into from above or out of downwards
~ - vibrato
W - wide vibrato
tr - trill
TP - tremolo picking
T - tapping
S - slap
P - pop
< - fade in
^ - brush up
v - brush down





Comments


Popular Unearth tabs & chords
Grave Of Opportunity Bass Tabs
My Heart Bleeds No Longer 2 Bass Tabs
Bloodlust Of The Human Condition Tabs
Crow Killer Tabs
Internal War Tabs
Ruination Of The Lost Tabs
Stronghold Tabs
The Great Dividers 2 Tabs
This Glorious Nightmare Tabs
Zombie Autopilot 5 Tabs


Song lyrics



↑ Back to top | Tablatures and chords are parodies/interpretations of the original songs. You may use it for private study, scholarship, research or language learning purposes only
© 2014 AZChords.com Contact us | Privacy policy | DMCA | Add/correct tabs | Request tabs | Top 50 tabs