>
 >
More Songs About Chocolate And Girls

More Songs About Chocolate And Girls Guitar Tabs

Undertones - More Songs About Chocolate And Girls chords, tabs, tablatures, lyrics

Guitar lessons | Add/correct | Request | Top 50 tabs Artists:  A B C D E F G H I J K L M N O P Q R S T U V W X Y Z 0-9

More Songs About Chocolate And Girls Guitar Tabs – Undertones

CD, Sheet music, Poster

Do you like More Songs About Chocolate And Girls? Share with your friends now
Tabs
Band - The Undertones
Song - More Songs about Chocolate and Girls
Album - Hypnotised


__ above chords = palm muting - very light for this song.

Intro: (Guitar 1 only)
e---------------------------------------------
B---------------------------------------------
G---------------------------------------------
D--------3463-----------------3463------------
A-9/44-4-----------4/6-4-44-4-----------4/6-4-
E-------------44-------------------44---------

Verse 1: 

Guitar 1: (*6)
e----------------------
B----------------------
G----------------------
D------3463------------
A-44-4-----------4/6-4-
E-----------44---------

Guitar 2: (*6)
e-----------
B-6-6---4-4-
G-6-6---5-5-
D----------- 
A-----------
E-----------

Chorus:
Guitar 1: 
E (022100) - strum to the rhythm - you'll pick it up quickly.

Guitar 2: 
e-----------------------------------
B-----------------------------------
G-9-9-9-9-9-9-9-999-9-9-9-9-9-9-9-9-
D-9-9-9-9-9-9-9-999-9-9-9-9-9-9-9-9-
A-7-7-7-7-7-7-7-7---7-7-7-7-7-7-7-7-
E-----------------------------------
(play on every 2nd and 4th beat)

Verse 2:

Guitar 1: (I know this isn't fully correct, but I couldn't tab it fully so I put down what I play)

e-------------------------------------------
B-------------------------------------------
G--------------13-11-10---11----------10----
D--------13p11---------------11----10----11-
A-------------------------------11----------
E-------------------------------------------

e------------------------
B------------------------
G------------------------
D--------3463------------
A-9\44-4-----------4/6-4-
E-------------44---------

e----------------------
B----------------------
G---------------------- *3
D------3463------------
A-44-4-----------4/6-4-
E-----------44---------


Guitar 2:

e------------------
B-----6-6------4-4-
G-----6-6------5-5-
D-6-6-------------- * 2
A-4-4------6-6-----
E----------4-4-----

e-----------
B-6-6---4-4-
G-6-6---5-5-
D----------- *4
A-----------
E-----------

Chorus

Verse 3:

Guitar 1:
I can't tab the first 6 bars, so the best thing to do is improvise on the high C# and Ab major scales (starting at D-11 and A-11 respectively)

then:

e---------------
B---------------
G-13------11-10- *4
D-11--13--------
A-----11--------
E---------------

e-----------
B-----------
G-----11-10- * 2
D-13--------
A-11--------
E-----------

Guitar 2:
e------------------
B-----6-6------4-4-
G-----6-6------5-5-
D-6-6-------------- * 2
A-4-4------6-6-----
E----------4-4-----

e--------------
B--------------
G--------------
D-6-6---------- * 2
A-4-4------6-6-
E----------4-4-

e--------------------
B-_________----------
G-666666666-________-
D-666666666-66666666- * 2
A-444444444-66666666-
E-----------44444444-

e----------
B----------
G-________-
D-66666666- * 2
A-66666666-
E-44444444-

Chorus

Verse 4:

Guitar 1: tacet for first 4 bars, then:

e------------------------
B------------------------
G------------------------
D--------3463------------
A-9\44-4-----------4/6-4-
E-------------44---------

e----------------------
B----------------------
G---------------------- *3
D------3463------------
A-44-4-----------4/6-4-
E-----------44---------

Guitar 2:

e--------------------
B----6---------------
G----6---------------
D-66--------66-------
A-44---66---44---66--
E------44--------44--

e-----------
B-6-6---4-4-
G-6-6---5-5-
D----------- *4
A-----------
E-----------

Chorus to fade out.

Order for reference:
Intro
Verse 1
Chorus
Verse 2
Chorus 
Verse 3
Chorus
Verse 4
Chorus to fade





Comments


Popular Undertones tabs & chords
Tearproof Bass Tabs
Teenage Kicks 1 Bass Tabs
Teenage Kicks 2 Bass Tabs
Teenage Kicks Chords
Teenage Kicks 1 Chords
Crisis Of Mine 1 Tabs
Here Comes The Summer 1 Tabs
Teenage Kicks Tabs
Family Entertainment Ukulele
Mars Bars Ukulele


Song lyrics



↑ Back to top | Tablatures and chords are parodies/interpretations of the original songs. You may use it for private study, scholarship, research or language learning purposes only
© 2014 AZChords.com Contact us | Privacy policy | DMCA | Add/correct tabs | Request tabs | Top 50 tabs