>
 >
Jimmy Jimmy

Jimmy Jimmy Guitar Tabs

Undertones - Jimmy Jimmy chords, tabs, tablatures, lyrics

Guitar lessons | Add/correct | Request | Top 50 tabs Artists:  A B C D E F G H I J K L M N O P Q R S T U V W X Y Z 0-9

Jimmy Jimmy Guitar Tabs – Undertones

CD, Sheet music, Poster

Do you like Jimmy Jimmy? Share with your friends now
Tabs
			     Jimmy Jimmy - The Undertones

Tuning: std

intro - open A chord riff

e|----------------------------------------------|
B|---2------------------------------------------|
G|----2---0h2-----------------------------------|x 4
D|------2---------------------------------------|
A|-0--------------------------------------------|
E|----------------------------------------------|

  	
  D              E D 	 A              D  

e|----------------------------------------------|
B|----------------------------------------------|
G|---------------------------2------------------| x 3
D|-----------------------------4-2-4-2-0--------|
A|----------------------------------------------|
E|----------------------------------------------|



  G                 E       G             E      
e|----------------------------------------------|
B|----------------------------------------------|
G|----------------------------------------------|
D|----------------------------------------------|
A|----------------------------------------------|
E|----------------------------------------------|

Little mummy's boy
A               E
He wasn't very old
    D           E
Though he was very small
  A                 E
He did what he was told
    D               E

D      E D   A riff
Jimmy Jimmy - Oooh
D      E D   A riff
D      E D   A riff
Poor little Jimmy wouldn't let go 
G                  E               

G                  E

He'd stay awake at night
A                  E
Lying in his bed
 D            E
No one ever listened
A            E 
To a single word he said
     D              E

Jimmy Jimmy ...


A E D E

A E D

Silly boy
E     A   E  D
Silly boy
E     A   E  D
Silly boy
E     A   E  D
Such a silly boy
E            A

 
Jimmy Jimmy ...


Now little Jimmy's gone
A                  E 
He disappeared one day
   D               E 
But no one saw the ambulance
    A              E 
That took little Jim away
     D                  E
 


rpt...





Comments


Popular Undertones tabs & chords
Family Entertainment Chords
Girls Don't Like It Chords
Mars Bars Chords
Here Comes The Summer Tabs
Here Comes The Summer 2 Tabs
Male Model Intro Tabs
Teenage Kicks [Chords] Tabs
Wrong Way Tabs
Family Entertainment Ukulele
Teenage Kicks Ukulele


Song lyrics



↑ Back to top | Tablatures and chords are parodies/interpretations of the original songs. You may use it for private study, scholarship, research or language learning purposes only
© 2014 AZChords.com Contact us | Privacy policy | DMCA | Add/correct tabs | Request tabs | Top 50 tabs