» » »

Last Tabs (ver.1)

Artists:  A B C D E F G H I J K L M N O P Q R S T U V W X Y Z # 

Last Tabs (ver.1)

Underoath
Rating:
0/5 (0 votes)

Tabs too difficult? Try these video lessons and learn fast.
                This is my very first tab i made in my life...well not tru i tried making one
for crazy train but didnt get to be on the list....but anyways if it is
correct anything thanxs

Tuning:Drop D Tuning {DADGBe}

{7:41}

/ slide up
\ slide down
b bend
h hammer on
p pull off
*harmonics
x dead note
()remaining sound
. palm mute
' tremelo pick
^ Scratch the string
~ Vibrato

This looks like a hard song....and it could be if u dont know how to do ur
tremelo picking....or hitting (hammering) and pull offs. This is a very fun
and crazy song to play so enjoy.

Intro
e|--------------------------------------------------------------------------|
B|--------------------------------------------------------------------------|
G|--------------------------------------------------------------------------|
D|--------------------------------------------------------------------------|
A|---5h0p-1h0p-5h0p-1h0p-5h0p-1h0p---8h0p-1h0p-8h0p-1h0p--------------------|
D|--------------------------------------------------------------------------|
									     |
e|----------------------------------------------------------------------------|
B|----------------------------------------------------------------------------|
G|----------------------------------------------------------------------------|
D|----------------------------------------------------------------------------|X2
A|---7h0p-1h0p-7h0p-1h0p---5h0p-1h0p-5h0p-1h0p--------------------------------|
D|----------------------------------------------------------------------------|
***play this twice and then the lead comes in and instead of ending with
5h0p ....end with 10h0p...do this once..then go back to ending with 5h0p
for another 2 times

e|--------------------------------------------------------------------------|
B|--------------------------------------------------------------------------|
G|--------------------------------------------------------------------------|
D|--------------------------------------------------------------------------|
A|---5h0p-1h0p-5h0p-1h0p-5h0p-1h0p--7h0p-1h0p--8h0p-1h0p--------------------|
D|--------------------------------------------------------------------------|

e|--------------------------------------------------------------------------|
B|--------------------------------------------------------------------------|
G|--------------------------------------------------------------------------|
D|--------------------------------------------------------------------------|
A|---7h0p-1h0p--10h0p-1h0p-10h0p-1h0p--7h0p-1h0p----------------------------|
D|--------------------------------------------------------------------------|


e|--------------------------------------------------------------------------|
B|--------------------------------------------------------------------------|
G|--------------------------------------------------------------------------|
D|--------------------------------------------------------------------------|
A|---5h0p-1h0p-5h0p-1h0p-5h0p-1h0p---8h0p-1h0p-8h0p-1h0p--------------------|
D|--------------------------------------------------------------------------|

e|----------------------------------------------------------------------------|
B|----------------------------------------------------------------------------|
G|----------------------------------------------------------------------------|
D|----------------------------------------------------------------------------|X2
A|---7h0p-1h0p-7h0p-1h0p---5h0p-1h0p-5h0p-1h0p--------------------------------|
D|----------------------------------------------------------------------------|


e|--------------------------------------------------------------------------|
B|--------------------------------------------------------------------------|
G|--------------------------------------------------------------------------|
D|--------------------------------------------------------------------------|
A|---5h0p-1h0p-5h0p-1h0p-5h0p-1h0p---8h0p-1h0p-8h0p-1h0p--------------------|
D|--------------------------------------------------------------------------|

e|--------------------------------------------------------------------------|
B|--------------------------------------------------------------------------|
G|--------------------------------------------------------------------------|
D|--------------------------------------------------------------------------|
A|---7h0p-1h0p-7h0p-1h0p----------------------------------------------------|
D|--------------------------------------------------------------------------|

e|--------------------------------------------------------------------------|
B|--------------------------------------------------------------------------|
G|--------------------------------------------------------------------------|
D|--------------------------------------------------------------------------|
A|---5h0p-1h0p-5h0p-1h0p-5h0p-1h0p--7h0p-1h0p--8h0p-1h0p--7h0p-1h0p---------|
D|--------------------------------------------------------------------------|

e|----------------------------------------------------------------------------|
B|----------------------------------------------------------------------------|
G|----------------------------------------------------------------------------|
D|----------------------------------------------------------------------------|
A|---10h0p-1h0p-10h0p-1h0p--7h0p-1h0p-----------------------------------------|
D|----------------------------------------------------------------------------|

Chours
*** here is very fast tremelo picking..or u can just do alternate picking
but also scratch the string
e|--------------------------------------------------------------------------|
B|--------------------------------------------------------------------------|
G|--------------------------------------------------------------------------|
D|--------------------------------------------------------------------------|
A|---'5555555-8--'5555555-8--'5555555-8--'5555555---------------------------|
D|--------------------------------------------------------------------------|

e|--------------------------------------------------------------------------|
B|--------------------------------------------------------------------------|
G|--------------------------------------------------------------------------|
D|--------------------------------------------------------------------------|
A|---'3333333-7--'3333333-7--'3333333-7--'3333333---------------------------|
D|--------------------------------------------------------------------------|

e|----------------------------------------------------------------------------|
B|----------------------------------------------------------------------------|
G|----------------------------------------------------------------------------|
D|----------------------------------------------------------------------------|X6
A|---'7777777-10--'7777777-10--'7777777-10--'7777777--------------------------|
D|----------------------------------------------------------------------------|


e|----------------------------------------------------------------------------|
B|----------------------------------------------------------------------------|
G|----------------------------------------------------------------------------|
D|----------------------------------------------------------------------------|X4
A|---0-0-0-0-0-000--4-4-4-44--3-3-3--1-1-1-0-00-------------------------------|
D|---0-0-0-0-0-000--4-4-4-44--3-3-3--1-1-1-0-00-------------------------------|

e|--------------------------------------------------------------------------|
B|--------------------------------------------------------------------------|
G|--------------------------------------------------------------------------|
D|--------------------------------------------------------------------------|
A|---'5555555-8--'5555555-8--'5555555-8--'5555555---------------------------|
D|--------------------------------------------------------------------------|

e|--------------------------------------------------------------------------|
B|--------------------------------------------------------------------------|
G|--------------------------------------------------------------------------|
D|--------------------------------------------------------------------------|
A|---'3333333-7--'3333333-7--'3333333-7--'3333333---------------------------|
D|--------------------------------------------------------------------------|

e|----------------------------------------------------------------------------|
B|----------------------------------------------------------------------------|
G|----------------------------------------------------------------------------|
D|----------------------------------------------------------------------------|X4
A|---'7777777-10--'7777777-10--'7777777-10--'7777777--------------------------|
D|----------------------------------------------------------------------------|

Verse
e|----------------------------------------------------------------------------|
B|----------------------------------------------------------------------------|
G|----------------------------------------------------------------------------|
D|----------------------------------------------------------------------------|
A|---------0-0-0-0-0-8-5-0-8-4-0-8-3-0-0-000----------------------------------|
D|---0-0-0-0-0-0-0-0-8-5-0-8-4-0-8-3-0-0-000----------------------------------|


e|----------------------------------------------------------------------------|
B|----------------------------------------------------------------------------|
G|----------------------------------------------------------------------------|
D|----------------------------------------------------------------------------|X8
A|---'3333333333---'5555555555---'7777777777---'8888888888--------------------|
D|----------------------------------------------------------------------------|

Very Fast Riff Here
e|----------------------------------------------------------------------------|
B|----------------------------------------------------------------------------|
G|----------------------------------------------------------------------------|
D|----------------------------------------------------------------------------|X4
A|---8-8-8-8-8-8-8-8-8-8--10-10-10-10-10-10-10-10-10-10-----------------------|
D|---8-8-8-8-8-8-8-8-8-8--10-10-10-10-10-10-10-10-10-10-----------------------|

Fast Tremelo Picking
e|----------------------------------------------------------------------------|
B|----------------------------------------------------------------------------|
G|----------------------------------------------------------------------------|
D|----------------------------------------------------------------------------|X8
A|---'3333333333---'5555555555---'7777777777---'8888888888--------------------|
D|----------------------------------------------------------------------------|

Same Very Fast Riff Again
e|----------------------------------------------------------------------------|
B|----------------------------------------------------------------------------|
G|----------------------------------------------------------------------------|
D|----------------------------------------------------------------------------|X4
A|---8-8-8-8-8-8-8-8-8-8--10-10-10-10-10-10-10-10-10-10-----------------------|
D|---8-8-8-8-8-8-8-8-8-8--10-10-10-10-10-10-10-10-10-10-----------------------|

I didnt Tab the sytheniser...Wow i cant spell ...anyways i tabbed the solo
but im not quite sure if its correct or not ... give me an email if u think
so or not

Solo
e|--------------------------------------------------------------------------|
B|--------------------------------------------------------------------------|
G|---------------------------------------------------14-14-14-12h14/16*-16*-|
D|---/5h7-5h7b*--5h7*-7/10-10-9h10/12-12*-10h12/14-14-----------------------|
A|--------------------------------------------------------------------------|
D|--------------------------------------------------------------------------|

e|-------------17-15-14-15-13-12-13-13-12h13-12-12--------------------------|
B|----------17-------------------------------------15-14-15h14b*------------|
G|---14h16*------------------------------------------------------15-15h17---|
D|-----------------------------------------------------------------------15-|
A|--------------------------------------------------------------------------|
D|--------------------------------------------------------------------------|

e|---------------------------------------------12-17-15-13-15-13-12-13------|
B|------------------------------------13-12h13------------------------------|
G|------------------------15-15-13h15---------------------------------------|
D|---------------------15---------------------------------------------------|
A|---13h15h13-15/17h15------------------------------------------------------|
D|--------------------------------------------------------------------------|

e|---12h13h12b*-13-------------------------------17~~\----------------------|
B|-----------------15-14-15-14-12-14-14-12h14h12----------------------------|
G|--------------------------------------------------------------------------|
D|--------------------------------------------------------------------------|
A|--------------------------------------------------------------------------|
D|--------------------------------------------------------------------------|

Bridge1
e|----------------------------------------------------------------------------|
B|----------------------------------------------------------------------------|
G|----------------------------------------------------------------------------|
D|----------------------------------------------------------------------------|X4
A|---0-0-5h0-0-0-0-0-5h7-7-0-0------------------------------------------------|
D|---0-0-5h0-0-0-0-0-5h7-7-0-0------------------------------------------------|

Ok tricky part here..... u add an extra riff "everyother" time...the extra
riff is in brackets
e|---------------------------------------{---------------}--------------------|
B|---------------------------------------{---------------}--------------------|
G|---------------------------------------{-----------5h7-}--------------------|
D|---------------------------------------{------5h7------}--------------------|X
A|---0-0-0-0-0-0-0-0-5h7-7-0-0-0-0-0-0-0-{-5h7-----------}----------------|10-|
D|---0-0-0-0-0-0-0-0-5h7-7-0-0-0-0-0-0-0-{---------------}--------------------|

Bridge2
e|----------------------------------------------------------------------------|
B|----------------------------------------------------------------------------|
G|----------------------------------------------------------------------------|X
D|------------------------------------------------------------------------|14-|
A|---0-2-3--0-3-5-6--0-5-6-8--0-7-8-10----------------------------------------|
D|---0-2-3--0-3-5-6--0-5-6-8--0-7-8-10----------------------------------------|

Again I didnt Tab The Sytheniser

Fast Tremelo Picking again ( or just use alternate picking )
e|----------------------------------------------------------------------------|
B|----------------------------------------------------------------------------|
G|----------------------------------------------------------------------------|
D|---'2222222222222222(16)--'7777777777777777(16)-----------------------------|X2
A|----------------------------------------------------------------------------|
D|----------------------------------------------------------------------------|

Do the riff above 2 times then add it into the riff below

e|---'0000000000000000(16)--'5-5-5-5-5-5-5-5-5-3-3-3-3-3--------------------|
B|--------------------------------------------------------------------------|
G|--------------------------------------------------------------------------|
D|--------------------------------------------------------------------------|
A|--------------------------------------------------------------------------|
D|--------------------------------------------------------------------------|
									     |
e|---'3-5-5-5-5-5--'0000000000000000(16)--------------------------------------|
B|----------------------------------------------------------------------------|
G|----------------------------------------------------------------------------|
D|----------------------------------------------------------------------------|X4
A|----------------------------------------------------------------------------|
D|----------------------------------------------------------------------------|

Well thats the song....Wow 72 hours....Well have fun> and go buy they're cd
....i grantee its the best cd u can get....the only way to get it is online


| /  slide up
| \  slide down
| h  hammer-on
| p  pull-off
| ~  vibrato
| *  harmonic
| x  Mute note
            
Tabs too difficult? Try these video lessons and learn fast.




comments powered by Disqus
↑ Back to top | Tablatures and chords are parodies/interpretations of the original songs. You may use it for private study, scholarship, research or language learning purposes only