>
 >
I've Got Ten Friends And A Crowbar That Says You Ain't Gonna Do Jack

I've Got Ten Friends And A Crowbar That Says You Ain't Gonna Do Jack Guitar Tabs

Underoath - I've Got Ten Friends And A Crowbar That Says You Ain't Gonna Do Jack chords, tabs, tablatures, lyrics

Guitar lessons | Add/correct | Request | Top 50 tabs Artists:  A B C D E F G H I J K L M N O P Q R S T U V W X Y Z 0-9

I've Got Ten Friends And A Crowbar That Says You Ain't Gonna Do Jack Guitar Tabs – Underoath

CD, Sheet music, Poster

Do you like I've Got Ten Friends And A Crowbar That Says You Ain't Gonna Do Jack? Share with your friends now
Tabs
Hey, It's my first tab. This song is the greatest! This tab is gonna let  you go crazy 
it! ENJOI! (CORSAIR! HARLEQUIN!)

Tuning: DADGBe for both guitars

Intro:

Guitar 1

e|-------------------------------------------------------------------------|
B|-7-7-7-7-7-7-7-7-5-5-5-5-10-10-10-10-------------------------------------|
G|-------------------------------------------------------------------------|
D|-------------------------------------------------------------------------|
A|-------------------------------------------------------------------------|
D|-------------------------------------------------------------------------|

Guitar 2

e|-------------------------------------------------------------------------|
B|-7-----------------------------------------------------------------------|
G|-x--(strum as much as needed)--------------------------------------------|
D|-7-----------------------------------------------------------------------|
A|-------------------------------------------------------------------------|
D|-------------------------------------------------------------------------|

Guitar 1

e|-----------5-5-5-5-0-0-0h2-----------------------------------------------|
B|-3-3-3-----3-3-3-3-3-3-3---------(Play this twice before the riff below)-|
G|-6-6-6b7b6---------------------------------------------------------------|
D|-------------------------------------------------------------------------|
A|-------------------------------------------------------------------------|
D|-------------------------------------------------------------------------|

e|-7-7-7-7-7-7-9-9-9-9-9-9-10-10-10-10-10-10-12-12-12-12-12-12-------------|
B|-7-7-7-7-7-7-8-8-8-8-8-8-10-10-10-10-10-10-12-12-12-12-12-12-------------|
G|-------------------------------------------------------------------------|
D|-------------------------------------------------------------------------|
A|-------------------------------------------------------------------------|
D|-------------------------------------------------------------------------|

Guitar 2

e|-------------------------------------------------------------------------|
B|-------------------------------------------------------------------------|
G|-------------------------------------------------------------------------|
D|-7-7-7-9--9-11b12b11-9-9-9-9-9-9-9-9-12-12-12-12-12-14-14-14-14-14-------|
A|-7-7-7-9--9-9--------9-9-9-9-9-9-9-9-12-12-12-12-12-14-14-14-14-14-------|
D|-7-7-7-9--9-9--------9-9-9-9-9-9-9-9-12-12-12-12-12-14-14-14-14-14-------|
  (^ ^ ^ ^ This is what Tim plays initially, like a fill)

e|-------------------------------------------------------------------------|
B|-------------------------------------------------------------------------|
G|-------------------------------------------------------------------------|
D|-5-5-5-5-5-5-5-5--5-5-5--5-5-5-5--7-7-7-7--7-7---------------------------|
A|-5-5-5-5-5-5-5-5--5-5-5--5-5-5-5--7-7-7-7--7-7---------------------------|
D|-5-5-5-5-5-5-5-5--5-5-5--5-5-5-5--7-7-7-7--7-7---------------------------|

Verse 1

Guitar 1

e|-------------------------------------------------------------------------|
B|-------------------------------------------------------------------------|
G|-------------------------------------------------------------------------|
D|-9~-0~-5~-4b5b4----------------------------------------------------------|
A|-9~-0~-5~-5~-------------------------------------------------------------|
D|-9~-0~-5~-5~-------------------------------------------------------------|


e|-------------------------------------------------------------------------|
B|-------------------------------------------------------------------------|
G|-------------------------------------------------------------------------|
D|-----9-9-9-9-9-9-9-9-9-9-9-9-9-12-12-12-12-12-12-12-12-12-12-12-12-12----|
A|-----9-9-9-9-9-9-9-9-9-9-9-9-9-12-12-12-12-12-12-12-12-12-12-12-12-12----|
D|-2/9-9-9-9-9-9-9-9-9-9-9-9-9-9-12-12-12-12-12-12-12-12-12-12-12-12-12----|
         . . . . . . . . . . . .    .  .  .  .  .  .  .  .  .  .  .  .

e|-------------------------------------------------------------------------|
B|-------------------------------------------------------------------------|
G|-------------------------------------------------------------------------|
D|-5-5-5-5-5-5-5-5-5-5-5-5-5-7-7-7-7-7-7-7-7-7-7-7-7-7---------------------|
A|-5-5-5-5-5-5-5-5-5-5-5-5-5-7-7-7-7-7-7-7-7-7-7-7-7-7---------------------|
D|-5-5-5-5-5-5-5-5-5-5-5-5-5-7-7-7-7-7-7-7-7-7-7-7-7-7---------------------|
     . . . . . . . . . . . .   . . . . . . . . . . . .

Guitar 2

Comes in right before the end of the riff above

e|-------------------------------------------------------------------------|
B|-3-----------------------------------------------------------------------|
G|-6b7b6p4/11-11-11-11-11-11-11-11-11-11-11-11-11-14-14-14-14-9--9-11-11-11|
D|---------12-12-12-12-12-12-12-12-12-12-12-12-12-12-12-12-12-12-1212-12-12|
A|-------------------------------------------------------------------------|
D|-------------------------------------------------------------------------|
              .  .  .  .  .  .  .  .  .  .  .  .  .  .  .  .  .  . .  .  .
e|-------------------------------------------------------------------------|
B|----------------------------------------3--------------------------------|
G|-11-11-11-11-11-11-11-11-11-11-11-11-11-6b7b6p4/11-----------------------|
D|-12-12-12-12-12-12-12-12-12-12-12-12-12----------------------------------|
A|-------------------------------------------------------------------------|
D|-------------------------------------------------------------------------|
      .  .  .  .  .  .  .  .  .  .  .  .

Pre Chorus

Guitar 1

e|-7-7-7-7-7-7-9-9-9-9-9-9-10-10-10-10-10-10-12-12-12-12-12-12-------------|
B|-7-7-7-7-7-7-8-8-8-8-8-8-10-10-10-10-10-10-12-12-12-12-12-12-------------|
G|-------------------------------------------------------------------------|
D|-------------------------------------------------------------------------|
A|-------------------------------------------------------------------------|
D|-------------------------------------------------------------------------|

Guitar 2

e|-------------------------------------------------------------------------|
B|-------------------------------------------------------------------------|
G|-------------------------------------------------------------------------|
D|-5-5-5-5-5-5-5-5--5-5-5--5-5-5-5--7-7-7-7--7-7---------------------------|
A|-5-5-5-5-5-5-5-5--5-5-5--5-5-5-5--7-7-7-7--7-7---------------------------|
D|-5-5-5-5-5-5-5-5--5-5-5--5-5-5-5--7-7-7-7--7-7---------------------------|

Chorus

Guitar 1

e|-----------5-5-5-5-0-0-0h2-----------------------------------------------|
B|-3-3-3-----3-3-3-3-3-3-3-------------------------------------------------|
G|-6-6-6b7b6---------------------------------------------------------------|
D|-------------------------------------------------------------------------|
A|-------------------------------------------------------------------------|
D|-------------------------------------------------------------------------|


e|-7-7-7-7-7-7-9-9-9-9-9-9-10-10-10-10-10-10-12-12-12-12-12-12-------------|
B|-7-7-7-7-7-7-8-8-8-8-8-8-10-10-10-10-10-10-12-12-12-12-12-12-------------|
G|-------------------------------------------------------------------------|
D|-------------------------------------------------------------------------|
A|-------------------------------------------------------------------------|
D|-------------------------------------------------------------------------|

Guitar 2

e|-------------------------------------------------------------------------|
B|-------------------------------------------------------------------------|
G|-------------------------------------------------------------------------|
D|-9-11b12b11-9-9-9-9-9-9-9-9-12-12-12-12-12-14-14-14-14-14----------------|
A|-9-9--------9-9-9-9-9-9-9-9-12-12-12-12-12-14-14-14-14-14----------------|
D|-9-9--------9-9-9-9-9-9-9-9-12-12-12-12-12-14-14-14-14-14----------------|

e|-------------------------------------------------------------------------|
B|-------------------------------------------------------------------------|
G|-------------------------------------------------------------------------|
D|-5-5-5-5-5-5-5-5--5-5-5--5-5-5-5--7-7-7-7--7-7---------------------------|
A|-5-5-5-5-5-5-5-5--5-5-5--5-5-5-5--7-7-7-7--7-7---------------------------|
D|-5-5-5-5-5-5-5-5--5-5-5--5-5-5-5--7-7-7-7--7-7---------------------------|

Guitar 1

Play this after the riff above is played once
e|-------------------------------------------------------------------------|
B|-------------------------------------------------------------------------|
G|-9-9-9-9-9-9-9-9-9-9-9-9-11-11-11-11-11-12-12-12-12-12-12-6-6-6-6-6-6-6-6|
D|-x-x-x-x-x-x-x-x-x-x-x-x-x--x--x--x--x--x--x--x--x--x--x--x-x-x-x-x-x-x-x|
A|-7-7-7-7-7-7-7-7-7-7-7-7-9--9--9--9--9--10-10-10-10-10-10-4-4-4-4-4-4-4-4|
D|-------------------------------------------------------------------------|

e|-------------------------------------------------------------------------|
B|-------------------------------------------------------------------------|
G|-14/16-16-16-16-14/16-16-16-16-14/16-16----------------------------------|
D|-x--x--x--x--x--x--x--x--x--x--x--x--x-----------------------------------|
A|-12/14-14-14-14-12/14-14-14-14-12/14-14----------------------------------|
D|-------------------------------------------------------------------------|

Guitar 2

e|-------------------------------------------------------------------------|
B|-------------------------------------------------------------------------|
G|-------------------------------------------------------------------------|
D|-9-11b12b11-9-9-9-9-9-9-9-9-12-12-12-12-12-14-14-14-14-14----------------|
A|-9-9--------9-9-9-9-9-9-9-9-12-12-12-12-12-14-14-14-14-14----------------|
D|-9-9--------9-9-9-9-9-9-9-9-12-12-12-12-12-14-14-14-14-14----------------|

e|-------------------------------------------------------------------------|
B|-------------------------------------------------------------------------|
G|-------------------------------------------------------------------------|
D|-5-5-5-5-5-5-5-5--5-5-5--5-5-5-5--7-7-7-7--7-7---------------------------|
A|-5-5-5-5-5-5-5-5--5-5-5--5-5-5-5--7-7-7-7--7-7---------------------------|
D|-5-5-5-5-5-5-5-5--5-5-5--5-5-5-5--7-7-7-7--7-7---------------------------|

Post Chorus (Your Favorite Part)

Guitar 1

e|-------------------------------------------------------------------------|
B|--3-----3----3-----------------------------------------------------------|
G|--6b7---6b7--6b7---------------------------------------------------------|
D|-0---0-0---0-------------------------------------------------------------|
A|-0---0-0---0-------------------------------------------------------------|
D|-0---0-0---0-------------------------------------------------------------|
   .   . .   . (Repeat as needed)

Guitar 2

e|-------------------------------------------------------------------------|
B|-------------------------------------------------------------------------|
G|--11b12~---11b12~--11b12~------------------------------------------------|
D|-9------9-9------9-------------------------------------------------------|
A|-9------9-9------9-------------------------------------------------------|
D|-9------9-9------9-------------------------------------------------------|
   .      . .      . (Repeat as needed)

Guitar 1

e|-------------------------------------------------------------------------|
B|-------------------------------------------------------------------------|
G|-12-12-12-12-11-11-11-11-12-12-12-12-11-11-11-11-12-12-12-12-11-11-11-11-|
D|-x--x--x--x--x--x--x--x--x--x--x--x--x--x--x--x--x--x--x--x--x--x--x--x--|
A|-10-10-10-10-9--9--9--9--10-10-10-10-9--9--9--9--10-10-10-10-9--9--9--9--|
D|-------------------------------------------------------------------------|

e|-------------------------------------------------------------------------|
B|-9-9-9-9-----------------------------------------------------------------|
G|-x-x-x-x-----------------------------------------------------------------|
D|-7-7-7-7-----------------------------------------------------------------|
A|-------------------------------------------------------------------------|
D|-------------------------------------------------------------------------|

Guitar 2

e|-------------------------------------------------------------------------|
B|-------------------------------------------------------------------------|
G|-------------------------------------------------------------------------|
D|-5-----7-----------------------------------------------------------------|
A|-5-x24-7-x4--------------------------------------------------------------|
D|-5-----7-----------------------------------------------------------------|

Breakdown

Guitar 1

e|-------------------------------------------------------------------------|
B|-------------------------------------------------------------------------|
G|-------------------------------------------------------------------------|
D|-------------------------------------------------------------------------|
A|-------------------------------------------------------------------------|
D|-5~--5-7-9~--9-12--12-14--11-12------------------------------------------|
                            (repeat as needed)

Guitar 2 (With Echo or Delay Effects)

e|-------------------------------------------------------------------------|
B|-------------------------------------------------------------------------|
G|-12-11~----12-11b12b11-------14------------------------------------------|
D|-------12~----------------12----11b12b11---------------------------------|
A|-----------------------14------------------------------------------------|
D|-------------------------------------------------------------------------|
                            (repeat as needed)

Guitar 1

e|-------------------------------------------------------------------------|
B|-------------------------------------------------------------------------|
G|-------------------------------------------------------------------------|
D|-------------------------------------------------------------------------|
A|-----------------7-7-7-5-5-5-4-4-4-----------------7-7-7-5-5-5-4-4-4-----|
D|-5-5-5-5-5-5-5-5-------------------5-5-5-5-5-5-5-5-----------------------|
   . . . . . . . . . . . . . . . . . . . . . . . . . . . . . . . . . .

e|-------------------------------------------------------------------------|
B|-------------------------------------------------------------------------|
G|-------------------------------------------------------------------------|
D|-------------------------------------------------------------------------|
A|-----------------7-7-7-5-5-5-4-4-4-----------------9-9-9-9-9-9-9-9-------|
D|-9-9-9-9-9-9-9-9-------------------9-9-9-9-9-9-9-9-----------------------|
   . . . . . . . . . . . . . . . . . . . . . . . . . . . . . . . . .

Guitar 2 (With Echo or Delay Effects)

e|-------------------------------------------------------------------------|
B|-------------------------------------------------------------------------|
G|-12-11~----12-11b12b11-------14------------------------------------------|
D|-------12~----------------12----11b12b11---------------------------------|
A|-----------------------14------------------------------------------------|
D|-------------------------------------------------------------------------|
                            (repeat as needed)

This comes in after Aaron sings "Anything at Aaaaaaaaaaaaalllllllllll!"

e|-------------------------------------------------------------------------|
B|-10p0-12p0-14p0-0-15-0-15-0-0-17-0-17-0----------------------------------|
G|-------------------------------------------------------------------------|
D|-------------------------------------------------------------------------|
A|-------------------------------------------------------------------------|
D|-------------------------------------------------------------------------|
                            (repeat as needed)

Guitar 2

e|-7-7-7-10-10-10-9-9-9-9b10b910-------------------------------------------|
B|-7-7-7-10-10-10-8-8-8----------------------------------------------------|
G|-------------------------------------------------------------------------|
D|-------------------------------------------------------------------------|
A|-------------------------------------------------------------------------|
D|-------------------------------------------------------------------------|

Chorus

Guitar 1

e|-----------5-5-5-5-0-0-0h2-----------------------------------------------|
B|-3-3-3-----3-3-3-3-3-3-3-------------------------------------------------|
G|-6-6-6b7b6---------------------------------------------------------------|
D|-------------------------------------------------------------------------|
A|-------------------------------------------------------------------------|
D|-------------------------------------------------------------------------|


e|-7-7-7-7-7-7-9-9-9-9-9-9-10-10-10-10-10-10-12-12-12-12-12-12-------------|
B|-7-7-7-7-7-7-8-8-8-8-8-8-10-10-10-10-10-10-12-12-12-12-12-12-------------|
G|-------------------------------------------------------------------------|
D|-------------------------------------------------------------------------|
A|-------------------------------------------------------------------------|
D|-------------------------------------------------------------------------|

Guitar 2

e|-------------------------------------------------------------------------|
B|-------------------------------------------------------------------------|
G|-------------------------------------------------------------------------|
D|-9-11b12b11-9-9-9-9-9-9-9-9-12-12-12-12-12-14-14-14-14-14----------------|
A|-9-9--------9-9-9-9-9-9-9-9-12-12-12-12-12-14-14-14-14-14----------------|
D|-9-9--------9-9-9-9-9-9-9-9-12-12-12-12-12-14-14-14-14-14----------------|

e|-------------------------------------------------------------------------|
B|-------------------------------------------------------------------------|
G|-------------------------------------------------------------------------|
D|-5-5-5-5-5-5-5-5--5-5-5--5-5-5-5--7-7-7-7--7-7---------------------------|
A|-5-5-5-5-5-5-5-5--5-5-5--5-5-5-5--7-7-7-7--7-7---------------------------|
D|-5-5-5-5-5-5-5-5--5-5-5--5-5-5-5--7-7-7-7--7-7---------------------------|

Guitar 1

e|-------------------------------------------------------------------------|
B|-------------------------------------------------------------------------|
G|-9-9-9-9-9-9-9-9-9-9-9-9-11-11-11-11-11-12-12-12-12-12-12-6-6-6-6-6-6-6-6|
D|-x-x-x-x-x-x-x-x-x-x-x-x-x--x--x--x--x--x--x--x--x--x--x--x-x-x-x-x-x-x-x|
A|-7-7-7-7-7-7-7-7-7-7-7-7-9--9--9--9--9--10-10-10-10-10-10-4-4-4-4-4-4-4-4|
D|-------------------------------------------------------------------------|

            (repeat the above rifff here / )
e|----------------------------------------|--------------------------------|
B|----------------------------------------|--------------------------------|
G|-14/16-16-16-16-14/16-16-16-16-14/16-16-|-18-18-18-19-19-19-21-21-21-21--|
D|-x--x--x--x--x--x--x--x--x--x--x--x--x--|-x--x--x--x--x--x--x--x--x--x---|
A|-12/14-14-14-14-12/14-14-14-14-12/14-14-|-16-16-16-17-17-17-19-19-19-19--|
D|----------------------------------------|--------------------------------|

Guitar 2

e|-------------------------------------------------------------------------|
B|-------------------------------------------------------------------------|
G|-------------------------------------------------------------------------|
D|-9-11b12b11-9-9-9-9-9-9-9-9-12-12-12-12-12-14-14-14-14-14----------------|
A|-9-9--------9-9-9-9-9-9-9-9-12-12-12-12-12-14-14-14-14-14----------------|
D|-9-9--------9-9-9-9-9-9-9-9-12-12-12-12-12-14-14-14-14-14----------------|

e|-------------------------------------------------------------------------|
B|-------------------------------------------------------------------------|
G|-------------------------------------------------------------------------|
D|-5-5-5-5-5-5-5-5--5-5-5--5-5-5-5--7-7-7-7--7-7---------------------------|
A|-5-5-5-5-5-5-5-5--5-5-5--5-5-5-5--7-7-7-7--7-7---------------------------|
D|-5-5-5-5-5-5-5-5--5-5-5--5-5-5-5--7-7-7-7--7-7---------------------------|

Post Chorus (Your other favorite part)

Guitar 1

e|-------------------------------------------------------------------------|
B|--3-----3----3-----------------------------------------------------------|
G|--6b7---6b7--6b7---------------------------------------------------------|
D|-0---0-0---0----------------------------------0~-------------------------|
A|-0---0-0---0----------------------------------0~-------------------------|
D|-0---0-0---0----------------------------------0~-------------------------|
   .   . .   . (Repeat as needed)

Guitar 2

e|-------------------------------------------------------------------------|
B|-------------------------------------------------------------------------|
G|--11b12~---11b12~--11b12~------------------------------------------------|
D|-9------9-9------9-------------------------------------------------------|
A|-9------9-9------9-------------------------------------------------------|
D|-9------9-9------9-------------------------------------------------------|
   .      . .      . (Repeat as needed)

Outro

Guitar 1

e|-------------------------------------------------------------------------|
B|-------------------------------------------------------------------------|
G|-------------------------------------------------------------------------|
D|-9~-0~-5~-4b5b4----------------------------------------------------------|
A|-9~-0~-5~-5~-------------------------------------------------------------|
D|-9~-0~-5~-5~-------------------------------------------------------------|

Guitar 2 (With Echo or Delay Effects)

e|-------------------------------------------------------------------------|
B|-------------------------------------------------------------------------|
G|-12-11~----12-11b12b11-------14------------------------------------------|
D|-------12~----------------12----11b12b11---------------------------------|
A|-----------------------14------------------------------------------------|
D|-------------------------------------------------------------------------|
                            (repeat as needed)

e|-------------------------------------------------------------------------|
B|-------------------------------------------------------------------------|
G|-------------------------------------------------------------------------|
D|-11b12b11----------------------------------------------------------------|
A|-------------------------------------------------------------------------|
D|-------------------------------------------------------------------------|
                            (repeat as needed)

| /  slide up
|   slide down
| h  hammer-on
| p  pull-off
| ~  vibrato
| +  harmonic
| x  Mute note





Comments


Popular Underoath tabs & chords
Dive 2 Bass Tabs
There Could Be Nothing After This 2 Bass Tabs
When The Sun Sleeps 3 Bass Tabs
Youre Ever So Inviting 3 Bass Tabs
And I Dreamt Of You (Solo) Tabs
Innocence Stolen Tabs
Paper Lung 1 Tabs
Short Of Daybreak 1 Tabs
There Could Be Nothing After This 2 Tabs
Too Bright To See Too Loud To Hear Intro Tabs


Song lyrics



↑ Back to top | Tablatures and chords are parodies/interpretations of the original songs. You may use it for private study, scholarship, research or language learning purposes only
© 2014 AZChords.com Contact us | Privacy policy | DMCA | Add/correct tabs | Request tabs | Top 50 tabs