» » »

Underoath, In Division Tabs (ver.1)

Artists:  A B C D E F G H I J K L M N O P Q R S T U V W X Y Z # 

In Division Tabs (ver.1)

Underoath Tabs
Rating:
0/5 (0 votes)
In Division lessons Tabs too difficult? Try these video lessons and learn fast
                -------------------------------------------------------------------------------
-------------------------------------------------------------------------------
Tuning:Drop B

  Intro 0:11 I'm needing a better resistance...
C#|------------------------|----------------------|--------------------------|
G#|------------------------|----------------------|--------------------------|
E |------------------------|----------------------|--------------------------|
B |---0~-------------------|-0~-------------5---5-|--X2----------------------|
F#|---0~--5-0-0-0-0--------|-0~--5-0-0-0-0--------|--------------------------|
B |---0~----0-0-0-0--7-0-7-|-0~----0-0-0-0----0---|--------------------------|

    0:32 You know it's never...       0:37
C#|-----8---8-----------------------|-----8---8------------------------------|
G#|--10--10------10-----8----8------|--10--10-------10-----8-----------------|
E |-----------10----10----10---10-9-|------------10----10----10--------------|
B |---------------------------------|---------------------------12-----------|
F#|---------------------------------|----------------------------------------|
B |---------------------------------|----------------------------------------|

    0:46 I plan a revolution...  1:18 I don't know...
C#|--------------00000-|-----------------------------------------------------|
G#|--------------00000-|-----------------------------------------------------|
E |--------------77777-|-----------------------------------------------------|
B |--------------77777-|--X8-------------------------------------------------|
F#|--5h8p5--3/7--00000-|-----------------------------------------------------|
B |--5h8p5--3/7--------|--------5-8-7---3-5-0---5-8-7---3-0-0-0-0-0----------|

   1:30 Chorus
C#|--(0)----------------0--------------------------|-------------------------|
G#|--(6)----------------0--------------------------|-------------------------|
E |--(9)----------------7--------------------------|-------------------------|
B |-----0---------------7--------------------------|--X2---------------------|
F#|-----0--5-0----------0--1-1--5--1--0-0-0-0--3-3-|-------------------------|
B |-----0----0--88-77-0----1-1--5--1--0-0-0-0--3-3-|-------------------------|
                                      . . . .
   1:52                                     1:57
C#|-----8---8----|------------------------|-----8---8------------------------|
G#|--10--10------|------------------------|--10--10--10----------------------|
E |-----------10-|---12-----12------------|---------------10-12--------------|
B |--------------|-12--12-12--12-14-12-14-|---------------------12-----------|
F#|--------------|------------------------|----------------------------------|
B |--------------|------------------------|----------------------------------|

   2:03                                    2:09
C#|-----8---8----|------------------------|-----8---8------------------------|
G#|--10--10------|------------------------|--10--10--10/---------------------|
E |-----------10-|---12-----12------------|----------------------------------|
B |--------------|-12--12-12--12-14-12-14-|----------------------------------|
F#|--------------|------------------------|-----------------0-5-3-5-0--------|
B |--------------|------------------------|-----------------0-5-3-5-0--------|
                                                            .
   2:13 Solo                           2:36 God!                     
C#|----------------------------------|------------|---------------00000------|
G#|-------15-------------------------|------------|---------------00000------|
E |-----------------------------7b^9-|------------|---------------77777------|
B |--3/12----15-14b--8-7/12---8------|--0---------|---------------77777------|
F#|----------------------------------|--0-0-0-0-0-|--5-8-5-3-7-0--00000------|
B |----------------------------------|--0-0-0-0-0-|--5-8-5-3-7-0-------------|
                                                 Do this ^ until 3:06
   From 3:06, play what you would play during the Chorus until the end. 
At 3:28 I improve using these notes V                                 
C#|---10-11-13---------------------------------------------------------------|
G#|------------10-11---------------------------------------------------------|
E |-------------------12-----------------------------------------------------|
B |--------------------------------------------------------------------------|
F#|--------------------------------------------------------------------------|
B |--------------------------------------------------------------------------|


************************************
e|--0----------------0--------------|
B|--0----------------3--------------|
G|--7----------------2--------------|
D|--7----------------0--------------|
A|--0-----can also be^ -------------|
E|--^This---------------------------|

************************************
 It's not perfect, but hey, at least it's something. Hope it helps anyone who uses it.
            

comments powered by Disqus
↑ Back to top | Underoath Tabs for In Division. Lyrics for acoustic guitar and electric guitar. Tablatures and chords are parodies/interpretations of the original songs. You may use it for private study, scholarship, research or language learning purposes only