>
 >
In Completion

In Completion Guitar Tabs

Underoath - In Completion chords, tabs, tablatures, lyrics

Guitar lessons | Add/correct | Request | Top 50 tabs Artists:  A B C D E F G H I J K L M N O P Q R S T U V W X Y Z 0-9

In Completion Guitar Tabs – Underoath

CD, Sheet music, Poster

Do you like In Completion? Share with your friends now
Tabs
--------------------------------------------
--------------------------------------------

Tuning: Drop D

0:40 - 1:08
guitar 1
play this x3                then this x1
e|-----------------------|-----------------|
B|---------6p5-----------|-----------------|
G|-------------5---------|------------2^---|
D|---7~~---------7-------|-----------------|
A|---5~~-----------------|-----5---5-------|
D|-----------------------|---5---3---------|
guitar 2
play this like an echo of guitar 1
e|-----------------------|
B|-----------------------|
G|---------6p5-----------|
D|-------------5---------|
A|---------------7-------|
D|-----------------------|
0:54  
guitar 2
play x3                      then this x1
e|----------------------|-----------------------|
B|----------------------|-----------------------|
G|---7777777777777777---|---5555555555555555----|
D|---xxxxxxxxxxxxxxxx---|---xxxxxxxxxxxxxxxx----|
A|---5555555555555555---|---3333333333333333----|
D|----------------------|-----------------------|

---------------------------------------------------------------------------
1:09      Chorus
guitar 1  
e|--------------------------------------|\ 
B|--------------------------------------| \
G|--------------------------------------|  \
D|--------------------------------------|   \ 
A|---5---3h5~---5---3h5~-----5----3~----|    \
D|-----0----------0------------0--------|     \
guitar 2                                       x3
e|--------------------------------------|     /
B|--------------------------------------|    / 
G|--------------------------------------|   /
D|--------------------------------------|  /
A|---5---3h5~---5---3h5~--xx-0--3~------| /
D|-----0----------0-------xx-0----------|/

guitar 1
e|--------------------------------------|\
B|--------------------------------------| \
G|--------------------------------------|  \
D|--------------------------------------|   \ 
A|---5---3h5~---5------0--5----3--------|    \
D|-----0----------0-00-0----00----------|     \
                    ..      ..                 x1
e|--------------------------------------|     /
B|--------------------------------------|    /
G|--------------------------------------|   /
D|--------------------------------------|  /
A|---5---3h5~---5---3h5~--xx-0--3~------| /
D|-----0----------0-------xx-0----------|/

guitar 1
e|------------------------------------------|\
B|------------------------------------------| \
G|------------------------------------------|  \ 
D|------------------------------------------|   \
A|---5---3h5~---5---3h5~-----5----333333----|    \ 
D|-----0----------0------------0--333333----|     \
guitar 2                                           x1
e|------------------------------------------|     /
B|------------------------------------------|    /
G|------------------------------------------|   /
D|------------------------------------------|  /
A|---5---3h5~---5---3h5~-----5----333333----| / 
D|-----0----------0------------0--333333----|/

----------------------------------------------------------------------------
1:31
guitar 1
play this x3                then this x1
e|-----------------------|-----------------|
B|-----------6p5---------|-----------------|
G|--------7------5-------|------------2^---|
D|---7--7----------7-----|-----------------|
A|---5-------------------|-----5---5-------|
D|-----------------------|---5---3---------|
guitar 2   listen for these notes, they're scattered
e|--------------------------------------------------------|
B|---/10--8-----------------------------------------------|
G|----------------------------------------5~--------------|
D|----------10~~---------10~--------7-----------7~--------|
A|--------------------8-----------5-----------------------|
D|--------------------------------------------------------|

1:46 - 2:13  synths


2:14
e|-------------------|
B|-------------------|
G|-------------------|
D|-------------------|
A|---000-5-0-3-------|
D|---000---0---------|
     ...   .

Repeat chorus


2:34   "open your lungs..."
e|------------------------------------------|
B|------------------------------------------|
G|------------------------------------------|
D|------------------------------------------|
A|---0~-0--5^-0~-0--5^-0~-0--5^-0~-0-5^-----|
D|---0~-0-----0~-0-----0~-0-----0~-0--------|

2:51
e|------------------------------------------|
B|------------------------------------------|
G|------------------------------------------|
D|------------------------------------------|
A|---0--0--0--5^--0~--0--5^---0~---5^-------|
D|---0--0--0------0~--0-------0~------------|
2:58
e|--------------------------|
B|---6-----2----------------|
G|---10----6----------------|
D|--------------------------|
A|--------------------------|
D|--------------------------|

e|--------------------------|
B|--------------------------|
G|--------------------------|
D|--------------------------|
A|---0~--5^--0-3~----0~~----|
D|---0~------0-3~----0~~----|

The End



************************************

| .   palm mute
| /   slide up
| \   slide down
| h   hammer-on
| p   pull-off
| ~   vibrato
| +   harmonic
| x   Mute note
| ^   Bend
| pb  Pre-bend
| br  Bend release
| pbr Pre-bend release
| brb Bend release bend

************************************





Comments


Popular Underoath tabs & chords
A Boy Brushed Red Living In Black And White 2 Bass Tabs
Coming Down Is Calming Down Bass Tabs
Cries Of The Past 2 Bass Tabs
Its Dangerous Business Walking Out Your Front Door Bass Tabs
Young And Aspiring 4 Bass Tabs
Casting Such A Thin Shadow Tabs
Letting Go Of Tonight Tabs
Some Seek Forgiveness Others Escape Tabs
Too Bright To See Too Loud To Hear Ukulele
Writing On The Walls Ukulele


Song lyrics



↑ Back to top | Tablatures and chords are parodies/interpretations of the original songs. You may use it for private study, scholarship, research or language learning purposes only
© 2014 AZChords.com Contact us | Privacy policy | DMCA | Add/correct tabs | Request tabs | Top 50 tabs