» » »

Underoath, I Dont Feel Very Receptive Today Tabs (ver.1)

Artists:  A B C D E F G H I J K L M N O P Q R S T U V W X Y Z # 

I Dont Feel Very Receptive Today Tabs (ver.1)

Underoath Tabs
 Rating:
4/5 (4 votes)
I Dont Feel Very Receptive Today lessons Tabs too difficult? Try these video lessons and learn fast
                -------------------------------------------------------------------------------
                 I Don't Feel Very Receptive Today - Underoath
-------------------------------------------------------------------------------


Tuning:D,A,D,G,B,e

e|--------------------------------------------------------------------|
B|--------------------------------------------------------------------|
G|--10101010101010101010101010101010101010101010101010----------------|
D|--10101010101010101010101010101010101010101010101010----------------|
A|---8-8-8-8-8-8-8-8-8-8-8-8-8-8-8-8-8-8-8-8-8-8-8-8-8--0-0-0--0-0-0--|
D|---8-8-8-8-8-8-8-8-8-8-8-8-8-8-8-8-8-8-8-8-8-8-8-8-8--0-0-0--0-0-0--|

e|--------------------------------------------------------------------|
B|--------------------------------------------------------------------|
G|--10101010101010101010101010101010101010101010101010----------------|
D|--10101010101010101010101010101010101010101010101010----------------|
A|---8-8-8-8-8-8-8-8-8-8-8-8-8-8-8-8-8-8-8-8-8-8-8-8-8--0-0-0--0-0-0--|
D|---8-8-8-8-8-8-8-8-8-8-8-8-8-8-8-8-8-8-8-8-8-8-8-8-8--0-0-0--0-0-0--|

e|--------------------------------------------------------------------|
B|--------------------------------------------------------------------|
G|--10101010101010101010101010101010101010101010101010----------------|
D|--10101010101010101010101010101010101010101010101010----------------|
A|---8-8-8-8-8-8-8-8-8-8-8-8-8-8-8-8-8-8-8-8-8-8-8-8-8--0-0-0--0-0-0--|
D|---8-8-8-8-8-8-8-8-8-8-8-8-8-8-8-8-8-8-8-8-8-8-8-8-8--0-0-0--0-0-0--|

e|--------------------------------------------------------------------|
B|--------------------------------------------------------------------|
G|--10101010101010101010101010101010101010101010101010----------------|
D|--10101010101010101010101010101010101010101010101010----------------|
A|---8-8-8-8-8-8-8-8-8-8-8-8-8-8-8-8-8-8-8-8-8-8-8-8-8--0-0-0--0-0-0--|
D|---8-8-8-8-8-8-8-8-8-8-8-8-8-8-8-8-8-8-8-8-8-8-8-8-8--0-0-0--0-0-0--|

e|-------------------------------------------------------------|
B|-------------------------------------------------------------|
G|-------------------------------------------------------------|
D|-------------------------------------------------------------|
A|--0-0-x-x-0-0~---0-0-x-x-0-0~---0-0-x-x-0-0~---0-0-x-x-0-0~--|
D|--0-0-x-x-0-0~---0-0-x-x-0-0~---0-0-x-x-0-0~---0-0-x-x-0-0~--|

e|-------------------------------------------------------|
B|-------------------------------------------------------|
G|-------------------------------------------------------|
D|--10\9-14141414141414141414-10\9-14141414141414141414--|
A|---x\x--x-x-x-x-x-x-x-x-x-x--x\x--x-x-x-x-x-x-x-x-x-x--|
D|---8\7-12121212121212121212--8\7-12121212121212121212--|

e|----------------------------------------------------------|
B|----------------------------------------------------------|
G|----------------------------------------------------------|
D|--10\9-14141414141414141414--10/12--9-9-9-9-9-9-9-9-9-9---|
A|---x\x--x-x-x-x-x-x-x-x-x-x---x/-x--x-x-x-x-x-x-x-x-x-x---|
D|---8\7-12121212121212121212---9/10--7-7-7-7-7-7-7-7-7-7---|

e|-------------------------------------------------------|
B|-------------------------------------------------------|
G|-------------------------------------------------------|
D|--10\9-14141414141414141414-10\9-14141414141414141414--|
A|---x\x--x-x-x-x-x-x-x-x-x-x--x\x--x-x-x-x-x-x-x-x-x-x--|
D|---8\7-12121212121212121212--8\7-12121212121212121212--|

e|----------------------------------------------------------|
B|----------------------------------------------------------|
G|----------------------------------------------------------|
D|--10\9-14141414141414141414--10/12--9-9-9-9-9-9-9-9-9-9---|
A|---x\x--x-x-x-x-x-x-x-x-x-x---x/-x--x-x-x-x-x-x-x-x-x-x---|
D|---8\7-12121212121212121212---9/10--7-7-7-7-7-7-7-7-7-7---|

e|----------------------------------------------------------------|
B|----------------------------------------------------------------|
G|----------------------------------------------------------------|
D|------14141414141414141414141414141414141414141414141414141414--|
A|--0-0--x-x-x-x-x-x-x-x-x-x-x-x-x-x-x-x-x-x-x-x-x-x-x-x-x-x-x-x--|
D|--0-0-12121212121212121212121212121212121212121212121212121212--|

e|--------------------------------------------------------------------------|
B|--------------------------------------------------------------------------|
G|--------------------------------------------------------------------------|
D|--------14141414141414141414141414141414141414141414141414141414--141414--|
A|--0-0-0--x-x-x-x-x-x-x-x-x-x-x-x-x-x-x-x-x-x-x-x-x-x-x-x-x-x-x-x---x-x-x--|
D|--0-0-0-12121212121212121212121212121212121212121212121212121212--121212--|

e|---------------------------------------------------------------|
B|---------------------------------------------------------------|
G|---------------------------------------------------------------|
D|-----14141414141414141414141414141414141414141414141414141414--|
A|-0-0--x-x-x-x-x-x-x-x-x-x-x-x-x-x-x-x-x-x-x-x-x-x-x-x-x-x-x-x--|
D|-0-0-12121212121212121212121212121212121212121212121212121212--|

e|--------------------------------------------------------------------------|
B|--------------------------------------------------------------------------|
G|--------------------------------------------------------------------------|
D|--------14141414141414141414141414141414141414141414141414141414--141414--|
A|--0-0-0--x-x-x-x-x-x-x-x-x-x-x-x-x-x-x-x-x-x-x-x-x-x-x-x-x-x-x-x---x-x-x--|
D|--0-0-0-12121212121212121212121212121212121212121212121212121212--121212--|


e|---------------------------------------------------------|
B|---------------------------------------------------------|
G|---------------------------------------------------------|
D|--1414141414141414---1414141414141414---14141414141414---|
A|---x-x-x-x-x-x-x-x----x-x-x-x-x-x-x-x----x-x-x-x-x-x-x---|
D|--1212121212121214---1212121212121212---12-12-12-12-12---|

e|------------------------------------------------------------------------------|
B|------------------------------------------------------------------------------|
G|------------------------------------------------------------------------------|
D|--14\121212121212---141414--141414141414141414141414141414141414141414141414--|
A|---x\-x-x-x-x-x-x----x-x-x---x-x-x-x-x-x-x-x-x-x-x-x-x-x-x-x-x-x-x-x-x-x-x-x--|
D|--12\101010101010---121212--121212121212121212121212121212121212121212121212--|

e|-----------------------------------------------------------------|
B|-----------------------------------------------------------------|
G|-----------------------------------------------------------------|
D|--141414141414141414141414141419191919191919191717171717171717---|
A|---x-x-x-x-x-x-x-x-x-x-x-x-x-x-x-x-x-x-x-x-x-x-x-x-x-x-x-x-x-x---|
D|--131313131313131313131313131317171717171717171515151515151515---|

e|------------------------------------------------------------|
B|------------------------------------------------------------|
G|------------------------------------------------------------|
D|--9/10-101010-101010---9/10-101010-101010--9/101010-101010--|
A|--x/-x--x-x-x--x-x-x---x/-x--x-x-x--x-x-x--x--x-x-x--x-x-x--|
D|--7/-8--8-8-8--8-8-8---7/-8--8-8-8--8-8-8--7--8-8-8--8-8-8--|

e|------------------------------------------------------------|
B|------------------------------------------------------------|
G|------------------------------------------------------------|
D|--9/10-101010-101010---9/10-101010-101010--9/101010-101010--|
A|--x/-x--x-x-x--x-x-x---x/-x--x-x-x--x-x-x--x--x-x-x--x-x-x--|
D|--7/-8--8-8-8--8-8-8---7/-8--8-8-8--8-8-8--7--8-8-8--8-8-8--|

e|-------------------------------------------|
B|-------------------------------------------|
G|-------------------------------------------|
D|--9/10-101010-101010---9/10-101010-101010--|
A|--x/-x--x-x-x--x-x-x---x/-x--x-x-x--x-x-x--|
D|--7/-8--8-8-8--8-8-8---7/-8--8-8-8--8-8-8--|

e|-------------------------------------------------------|
B|-------------------------------------------------------|
G|-------------------------------------------------------|
D|---------------1414-14141414-1414141414----------------|
A|--0-0--0-0-0----x-x--x-x-x-x--x-x-x-x-x---4-4-4--6-6-6-|
D|--0-0--0-0-0---1212-12121212-1212121212---4-4-4--6-6-6-|

e|-------------------------------------------------------|
B|-------------------------------------------------------|
G|-------------------------------------------------------|
D|---------------1414-14141414-1414141414----------------|
A|--0-0--0-0-0----x-x--x-x-x-x--x-x-x-x-x---4-4-4--6-6-6-|
D|--0-0--0-0-0---1212-12121212-1212121212---4-4-4--6-6-6-|

e|-----------0--0--------------------------------------------------------------|
B|-----------4--4--------------------------------------------------------------|
G|-----------6--6--------------------------------------------------------------|
D|-----------------------------------------1414--14141414---4-4-4-6-6-6-0~~~---|
A|-0-0-0-0-0------4-4-4-6-6-6--0-0-0-0-0-0--x-x---x-x-x-x---4-4-4-6-6-6-0~~~---|
E|-0-0-0-0-0------4-4-4-6-6-6--0-0-0-0-0-0-1212--12121212---4-4-4-6-6-6-0~~~---|




===============================================================================
            
Submit corrections

comments powered by Disqus
↑ Back to top | Underoath Tabs for I Dont Feel Very Receptive Today. Lyrics for acoustic guitar and electric guitar. Tablatures and chords are parodies/interpretations of the original songs. You may use it for private study, scholarship, research or language learning purposes only