» » »

Underoath, A Love So Pure Tabs (ver.1)

Artists:  A B C D E F G H I J K L M N O P Q R S T U V W X Y Z # 

A Love So Pure Tabs (ver.1)

Underoath Tabs
 Rating:
4.7/5 (13 votes)
A Love So Pure lessons Tabs too difficult? Try these video lessons and learn fast
1
                Underoath
Act of Depression

. palm mute
* tremolo picking
\ slide down

ok. awesome song. awesome band. its the only tab for this song too. 
you can figure out when and how long everything is played. so here goes....

|-------------------------------------------------|
|-------------------------------------------------|
|-------------------------------------------------|
|-------------------------------------------------|
|-------12-13-12----------------12-13-12----------|
|-12-13----------13-12-13-12-13----------13-12-13-|
   .  .  .  .  .  .  .  .  .  .  .  .  .  .  .  .

|-------------------------------------------------|
|-------------------------------------------------|
|-------------------------------------------------|
|-------------------------------------------------|
|-------11-12-11----------------11-12-11----------|
|-11-12----------12-11-12-11-12----------12-11-12-|
   .  .  .  .  .  .  .  .  .  .  .  .  .  .  .  .

|-------------------------------------------------|
|-------------------------------------------------|
|-------------------------------------------------|
|-0------2------0------2---2-2-2-2-2-2-2----------|
|-0------2------0------2---2-2-2-2-2-2-2----------|
|-0------2------0------2---2-2-2-2-2-2-2----------|
                           . . . . . . .

|-------------------------------------------------|
|-------------------------------------------------|
|-------------------------------------------------|
|-------------------------------------------------|
|-------------------------------------------------|
|-0-0-0-0-0-0-0-0-0-0-0-0-0-0-0-0-0-0-0-0-0-0-0-0-|
  . . . . . . . . . . . . . . . . . . . . . . . .

|------------------------------------------------------------------|
|------------------------------------------------------------------|
|------------------------------------------------------------------|
|-6-----5-------------------------3-----2--------------------------|
|-6-----5-------------------------3-----2--------------------------|
|-6-0-0-5-0-0-0-0-0-0-0-0-0-0-0-0-3-0-0-2-0-0-0-0-0-0-0-0-0-0-0-0--|
    . .   . . . . . . . . . . . .   . .   . . . . . . . . . . . .

|-----------------------------------|
|-----------------------------------|
|-----------------------------------|
|-6-----5----------3-----2----------|
|-6-----5---0-0-0--3-----2---0-2-3--|
|-6-0-0-5-0-0-0-0--3-0-0-2-0-0-2-3--|
    . .   . . . .    . .   . . . .

|-----------------------------------|
|-----------------------------------|
|-----------------------------------|guitar 2
|-----------------------------------|
|-----------0-0-0------------0-2-3--|
|-----------0-0-0------------0-2-3--|
            . . .            . . .

|-------------------------------------|
|-------------------------------------|
|-------------------------------------|
|-6------5----------6------5----------|
|-6------5----------6------5---5-6-8--|
|-6-0000-5-00000000-6-0000-5-0-5-6-8--|
    ....   ........   ....   . . . .

|--------------------------------|
|--------------------------------|
|--------------------------------|
|-6-------5-----6-----5----------|
|-6-------5-----6-----5---5-6-8--|
|-6-0-0-0-5-0-0-6-0-0-5-0-5-6-8--|
    . . .   . .   . .   . . .

|--------------------------------------|
|--------------------------------------|
|--------------------------------------|
|-6------5----------6------5---------0-|
|-6------5----------6------5---5-6-8-0-|
|-6-0000-5-00000000-6-0000-5-0-5-6-8-0-|
    ....   ........   ....   . . . .

|-------------------------------------|
|-------------------------------------|
|-------------------------------------|
|-5*-7*-----5*-7*-----3*--7*--5*---7*-|
|-------------------------------------|
|-------------------------------------|

|-------------------------------------|
|-------------------------------------|
|-------------------------------------|guitar 2
|-------------------------------------|
|-------------------------------------|
|-0*------------------8*------5*------|

|---------------------------------|
|---------------------------------|
|---------------------------------|
|-3*-2*--0*--------3*-2*--0*------|
|-------------3*---------------3*-|
|---------------------------------|

|-----------------------|
|-----------------------|
|-----------------------|guitar 2
|-----------------------|
|-----------------------|
|-0*---------------8*---|

|-------------------------------|
|-------------------------------|
|-------------------------------|
|-5*-7*------5*-------7*--------|
|-------------------------------|
|-------------------------------|

|------------------------|
|------------------------|
|------------------------|guitar 2
|------------------------|
|------------------------|
|-0*--------10*----8*----|

|---|
|---|
|---|
|-0-|
|-0-|
|-0-|

|----------------------------------------3---------|
|------------------------------------3-----3-------|
|-5-5----5--5--------5-----5-----------------------|
|-3-2---2--2--2----3-----3-----3---3---3-------3-0-|
|----------------1-----1-----1---3-----------3---0-|
|------------------------------------------------0-|
        .  .     . .   . .   . . . .   .     . .

|---------------------------------------------------|
|---------------------------------------------------|
|-5-5----5--5--------5-----5-------5-5---5-5-5------|
|-3-2---2--2--2----3-----3-----3---3-3---3-3-3----0-|
|----------------1-----1-----1---3-----3-------3--0-|
|-------------------------------------------------0-|
                 . . . . . . . . . . . . . . . .

|--------------------------------------------------------------|
|--------------------------------------------------------------|
|-----5---5-------------5--------------------------------------|
|-----3---2-2222222222222-----------------------------------0--|
|-0-0---0------------------11111111111111113333333333333333-0--|
|-0-0---0---------------------------------------------------0--|
  . .   .   ............   ................................

|--------------------------------------------------------------|
|--------------------------------------------------------------|
|-----5---5-------------5--------------------------------------|
|-----3---2-2222222222222-----------------------------------0--|
|-0-0---0------------------11111111111111113333333333333333-0--|
|-0-0---0---------------------------------------------------0--|
  . .   .                  ................................

|----------------------------------|
|----------------------------------|
|----------------------------------|this starts to be played slower after a
|-----------------6---6---6---6----|while
|-0-2-3-0-1-2-1-0-6-0-6-0-6-0-6-0--|
|-0-2-3-0-1-2-1-0-6-0-6-0-6-0-6-0--|
  . . . . . . . .   .   .   .   .

|--------------------|
|--------------------|
|--------------------|you can get the timings
|--------------------|
|--------------------|
|-3*-4*-3*-6*-5*-2*--|

|--------------------|
|--------------------|
|--------------------|
|-3*-4*-3*-6*-5*-2*--|
|--------------------|
|--------------------|

|--------------------------|
|--------------------------|
|--------------------------|
|-15*-16*-15*-19*-18*-14*--|
|--------------------------|
|--------------------------|

|---|
|---|
|---|
|-0-|
|-0-|
|-0-|

|---------------------------------------------|
|---------------------------------------------|
|---------------------------------------------|
|---------------------------------------------|
|-0----4----3----6-5-3-2-0----4----3----3-4-6-|this part is kinda hard to
|-0000040000300006-5-3-2-0000040000300003-4-6-|hear. but i did my best.
   .... .... ..... . . .  .... .... ..... . .

|--------------------------------------------------------------|
|--------------------------------------------------------------|
|--------------------------------------------------------------|
|--------------------------------------------------------8-7-6-|this is hard
|-0-------4-------3------6-5-3--0-------4-------3--------6-5-4-|to hear, too
|-0-0000004-0000003-000006-5-3--0-0000004-0000003-000000-------|
    ......  ......  ...... . .    ......  ......  ...... . .

|---------------------------|
|---------------------------|
|---------------------------|
|------------------2*-5*----|
|-------3*-6*---------------|
|-0*-3*-------3*-6*---------|

|----------------------------------------------|
|----------------------------------------------|
|----------------------------------------------|
|---------------------------------------2*-5*--|
|-0-0-0-0-3-3-3-3-3*-6*-3-3-3-3-6-6-6-6--------|
|-0-0-0-0-3-3-3-3-------3-3-3-3-6-6-6-6--------|
  . . . . . . . .       . . . . . . . .

|---|
|---|
|---|
|-0-|
|-0-|
|-0-|

this is the first slow part. its played clean.
(to me, this part is easier to use my fingers to pick)
|----2-----2-----3-----3-----3------2-----2-----3-----3-----3-----|
|-----------------------------------------------------------------|
|------0-----0-----0-----0-----0------0-----0-----0-----0-----0---|
|-2------2-----2-----2-----2-----0------0-----0-----0-----0-------|
|-----------------------------------------------------------------|
|-----------------------------------------------------------------|

|----2-----2-----3-----3-----3----------------------3-------------|
|-----------------------------------3-----3------0----0-----------|
|------0-----0-----0-----0-----0------0-----0-----------0---------|
|-----------------------------------------------------------------|
|-3------3-----3-----3-----3-----2------2-----3-------------------|
|-----------------------------------------------------------------|
play that however many times

then play this
|----------------7--7--5--3--------------------7--7--5--3-|
|----7--5--3--------------------7--7--5--3----------------|
|---------------------------------------------------------|
|---------------------------------------------------------|
|-7--5--3--2-----7--5--3--2-----7--5--3--2-----7--5--3--2-|
|---------------------------------------------------------|


|-------------------------------------------|
|-------------------------------------------|
|-------4*---5*-----------------2*--5*--4*--|
|-2*----2*---2*-----------2*----2*--2*--2*--|
|-------------------------------------------|
|-------------------------------------------|

|-------------------------------------------|
|-------------------------------------------|
|-------------------------------------------|guitar one
|-2*------3*---------2*------3*-------------|
|-----2*------3*-5*------2*------3*-5*------|
|-------------------------------------------|

|-------------------------------------------|
|-------------------------------------------|
|-------------------------------------------|guitar two
|-2*------3*---------2*------3*-------------|
|-----2*------3*-5*------2*------3*-5*------|
|-------------------------------------------|
                                 .  .

|-------------------------------------------|
|-------------------------------------------|
|-------------------------------------------|guitar 2
|-------------------------------------------|
|-------------------------------------------|
|-2*------3*---------2*----------3*---------|

|--------------|
|--------------|
|--------------|guitar one
|-0*-2*-4*-7*--|
|--------------|
|--------------|

|-------------------------------------------------------------------|guitar
|-------------------------------------------------------------------|one
|-------------------------------------------------------------------|
|-4*-----7*---4*-------7*--4*---------------------------------------|
|-----------------7*----------7*------4*-5*-4*---------4*-5*-4*-0*--|start
|--------------------------------5*------------7*-5*----------------|over

|-------------------------------------------------------------------|guitar
|-------------------------------------------------------------------|two
|-------------------------------------------------------------------|
|-------------------------------------------------------------------|
|-------------------------------------4*-5*-4*---------4*-5*-4*-0*--|start
|-9*--------------7*-------------5*------------7*-5*----------------|over

|----------------|
|----------------|
|----------------|
|-------------9--|
|-4--5--4--0--9--|
|-------------9--|

this is the second clean part clean
|--------------------------------------|
|--------------------------------------|
|--------------------------------------|
|-12-----12-----11-----11-----11-------|
|----9------9------9------9------9-----|
|------9------9------9------9------9---|

|--------------------------------------|
|--------------------------------------|
|--------------------------------------|
|-12-----12-----11-----11-----11-------|
|----9------9------9------9------------|
|------9------9------9------9----0-7---|

|--------------------------------------|
|--------------------------------------|
|--------------------------------------|
|-9-----9-----7-----7-----7------------|
|---7-----7-----7-----7----------------|
|-----7-----7-----7-----7---0-5--------|

|--------------------------------------|
|--------------------------------------|
|--------------------------------------|
|-7-----7-----5-----5-----5------------| the clean part is played 2 times
|---5-----5-----5-----5-----5----------|
|-----5-----5-----5-----5--------------|

|-----------------------------------------------|
|-----------------------------------------------|
|-----------------------------------------------|
|-9--9--9\7-7--7--7\5-5--5--5-5-5-5-5-5-5-5-5-5-|
|-9--9--9\7-7--7--7\5-5--5--5-5-5-5-5-5-5-5-5-5-|
|-9--9--9\7-7--7--7\5-5--5--5-5-5-5-5-5-5-5-5-5-|

|---------------------------------------------------|
|---------------------------------------------------|
|---------------------------------------------------|idk exactly when the
|-9--9--9\7-7--7--7\5-5--5--5-5-5-5-5-5-5-5-5-5-5-5-|palm muting starts.
|-9--9--9\7-7--7--7\5-5--5--5-5-5-5-5-5-5-5-5-5-5-5-|you figure it out.
|-9--9--9\7-7--7--7\5-5--5--5-5-5-5-5-5-5-5-5-5-5-5-|
                                          . . . . .

|-----------------------------------------------------------------|
|-----------------------------------------------------------------|
|-----------------------------------------------------------------|
|-9-9-9-9-9-9-9\7-7-7-7-7-7-7-7\5-5-5-5-5-5-5-5-5-5-5-5-5-5-5-5-5-|
|-9-9-9-9-9-9-9\7-7-7-7-7-7-7-7\5-5-5-5-5-5-5-5-5-5-5-5-5-5-5-5-5-|
|-9-9-9-9-9-9-9\7-7-7-7-7-7-7-7\5-5-5-5-5-5-5-5-5-5-5-5-5-5-5-5-5-|
    . . .   .       . . .   .       . . .   .   .   . . . . . . .

|-----------------|
|-----------------|
|-----------------|play this at some point
|-0-2-4-0-2-4-2-0-|
|-----------------|
|-----------------|

i havent figured out all of the solo yet. its kinda hard to here. so if you know it. help me out.

please correct me if ive made any mistakes at all.

if you have any questions (AIM: JonIsBeast87)


good luck!
            
Submit corrections

comments powered by Disqus
↑ Back to top | Underoath Tabs for A Love So Pure. Lyrics for acoustic guitar and electric guitar. 1 Tablatures and chords are parodies/interpretations of the original songs. You may use it for private study, scholarship, research or language learning purposes only