» » »

Underoath, Alone In December Bass tabs (ver.1)

Artists:  A B C D E F G H I J K L M N O P Q R S T U V W X Y Z # 

Alone In December Bass tabs (ver.1)

Underoath Tabs
 Rating:
4/5 (5 votes)
Alone In December lessons Tabs too difficult? Try these video lessons and learn fast
1
                sorry about the cr*ppy labeling just dont know what each part is musically called

*= hold note out
/= slide up or down

Intro
G/----------5*---5*---/
D/2*---0*-------------/ x4
A/--------------------/
E/--------------------/

Verse
G/------------------5555555555555555--|
D/22222222-00000000-------------------| x4
A/------------------------------------|
E/------------------------------------|

Soft Part
G/----------------------------------|
D/2-2-2-2/5/0-0-0-0-----------------| x2
A/------------------3-3-3-3/5/0--3--|
E/----------------------------------|

Verse
G/------------------5555555555555555--|
D/22222222-00000000-------------------| x4
A/------------------------------------|
E/------------------------------------|

Soft Part 2
G/--------------------------------------|
D/-----------------02-------------------| x4
A/3*---3*---3*---3*--0*---0*---0*---2---|
E/--------------------------------------|

Epic Part 1
G/-----------------------------------------------------|
D/-----------------------------------------------------| x2
A/--------------------------000000000000-333333333333--|
E/111111111111-333333333333----------------------------|

Soft Part 3
G/---------------------|
D/-----2*-------2------| x1
A/3*-------------------|
E/---------3*-----3-1--|

Epic part 2
G/----------------------------------------------------|
D/----------------------------------------------------| x2
A/000000000000----------------------------------------|
E/-------------333333333333-111111111111111111111111--|

Outro
G/2*---0*------------------------|
D/----------2-3*-----------------| x1
A/-----------------3*---2*---0---|
E/-------------------------------|
            
Submit corrections

comments powered by Disqus
↑ Back to top | Underoath Bass for Alone In December. Lyrics for acoustic guitar and electric guitar. 1 Tablatures and chords are parodies/interpretations of the original songs. You may use it for private study, scholarship, research or language learning purposes only