>
 >
On The Jazz 1

On The Jazz 1 Bass Tabs

Uncle Brian - On The Jazz 1 chords, tabs, tablatures, lyrics

Guitar lessons | Add/correct | Request | Top 50 tabs Artists:  A B C D E F G H I J K L M N O P Q R S T U V W X Y Z 0-9

On The Jazz 1 Bass Tabs – Uncle Brian

CD, Sheet music, Poster

Do you like On The Jazz 1? Share with your friends now
Bass Tabs
G -----------------------------
D ------4-4-------------------    x6
A 5-5-----2-202020-----
E -----------------------------

G -----------------------------
D -----------------------------    
A -----------------------------
E-33333333-55555------

G ---------------------------------------------
D -----7777-5-4----2-4-----2-0-----------     x4
A 55-------------22-----00----------------
E ---------------------------------------------

G -----------------------------
D -----------------------------    
A -----------------------------
E-33333333-55555------

G -------------------
D -------------------    x2
A-55-22------------
E ---------33-55---

G ----------------------------------
D ----------------------------------   
A 5555-2222------------------
E -----------------3333-5555

G -----------------------------
D -----------------------------    
A -----------------------------
E-33333333-55555------

G --------------------------------------
D ------4-4--------------------4-4---      
A 5-5-----2-202020---5-5----2--
E ---------------------------------------


G ---------------------------------------------
D -----7777-5-4----2-4-----2-0-----------     x4
A 55-------------22-----00----------------
E ---------------------------------------------

G -----------------------------
D -----------------------------    
A -----------------------------
E-33333333-55555------

G -------------------
D -------------------    x2
A-55-22------------
E ---------33-55---

G ----------------------------------
D ----------------------------------   
A 5555-2222------------------
E -----------------3333-5555

G -----------------------------
D -----------------------------    
A -----------------------------
E-33333333-55555------

G ----------------------------------------------------------------------
D -----------------------------------------------------------------------
A -----------------------------------------------------------------------
E 003-003-005-005-002-002-007-007-003-003-003----

G ----------------------------------
D ----------------------------------     x3
A 5555-2222------------------
E -----------------3333-5555

G -----------------------------
D -----------------------------    
A -----------------------------
E-33333333-55555------

G -------------------
D -------------------    x2
A-55-22------------
E ---------33-55---




G ----------------------------------
D ----------------------------------     
A 5555-2222------------------
E -----------------3333-5555

G -----------------------------
D -----------------------------    
A -----------------------------
E-33333333-55555------

G ----------------------------
D -----------7-9-7-----------    ( ~ = let note ring )
A 4-5~----------5~-------
E ---------------------------


This song in 100% right, enjoy





Comments


Popular Uncle Brian tabs & chords
Postcards 1 Bass Tabs
On The Jazz Tabs
Postcards Tabs
Postcards 1 Tabs
Were Going To Ibiza Tabs
Were Going To Ibiza 1 Tabs


Song lyrics



↑ Back to top | Tablatures and chords are parodies/interpretations of the original songs. You may use it for private study, scholarship, research or language learning purposes only
© 2014 AZChords.com Contact us | Privacy policy | DMCA | Add/correct tabs | Request tabs | Top 50 tabs