>
 >
On The Jazz

On The Jazz Guitar Tabs

Uncle Brian - On The Jazz chords, tabs, tablatures, lyrics

Guitar lessons | Add/correct | Request | Top 50 tabs Artists:  A B C D E F G H I J K L M N O P Q R S T U V W X Y Z 0-9

On The Jazz Guitar Tabs – Uncle Brian

CD, Sheet music, Poster

Do you like On The Jazz? Share with your friends now
Tabs
Uncle Brian

    Intro                                                               
E------------------------------|----------------------------------------
B------------------------------|----------------------------------------
G------------------------------|----------------------------------------
D---------4--4-----------------|----------------------------------------
A---5--5--------2--2--0--0--0--|----------------------------------------
E------------------------------|----------------------------------------
                                                                        

                                                                        
E---------2-----------2-----------2-----------2-----|-------------------
B------3-----3-----3-----3-----3-----3-----3-----3--|-------------------
G---2-----------2-----------0-----------2-----------|-------------------
D---------------------------------------------------|-------------------
A---------------------------------------------------|-------------------
E---------------------------------------------------|-------------------
                                                                        

                                                                        
E---------------------------------------------------|-------------------
B---------------------------------------------------|-------------------
G---------------------------------------------------|-------------------
D---5--5--5--5--5--5--5--5--7--7--7--7--7--7--7--7--|-------------------
A---5--5--5--5--5--5--5--5--7--7--7--7--7--7--7--7--|-------------------
E---3--3--3--3--3--3--3--3--5--5--5--5--5--5--5--5--|-------------------
                                                                        

    Verse (Ska Upstrokes)                                               
E---2--2--2--2-----3--3-----2--2--|-------------------------------------
B---3--3--3--3-----3--3-----2--2--|-------------------------------------
G---2--2--2--2-----4--4-----3--3--|-------------------------------------
D---------------------------------|-------------------------------------
A---------------------------------|-------------------------------------
E---------------------------------|-------------------------------------
                                                                        

    Chorus                                                              
E-----------------------------------------------------------------------
B-----------------------------------------------------------------------
G---7--7--------------------------------7--7----------------------------
D---7--7-----4--4-----5--5-----7--7-----7--7-----4--4-----5--5-----7----
A---5--5-----4--4-----5--5-----7--7-----5--5-----4--4-----5--5-----7----
E------------2--2-----3--3-----5--5--------------2--2-----3--3-----5----
                                                                        

                                                                        
E------|----------------------------------------------------------------
B------|----------------------------------------------------------------
G------|----------------------------------------------------------------
D---7--|----------------------------------------------------------------
A---7--|----------------------------------------------------------------
E---5--|----------------------------------------------------------------
                                                                        

                                                                        
E-----------------------------------------------------------------------
B-----------------------------------------------------------------------
G---7--7--7--7----------------------------------------------------------
D---7--7--7--7--4--4--4--4--5--5--5--5--7--7--7--7-----5--5--5--5--5----
A---5--5--5--5--4--4--4--4--5--5--5--5--7--7--7--7-----5--5--5--5--5----
E---------------2--2--2--2--3--3--3--3--5--5--5--5-----3--3--3--3--3----
                                                                        

                                                                        
E------------------------------------|----------------------------------
B------------------------------------|----------------------------------
G------------------------------------|----------------------------------
D---5--5--5--7--7--7--7--7--7--7--7--|----------------------------------
A---5--5--5--7--7--7--7--7--7--7--7--|----------------------------------
E---3--3--3--5--5--5--5--5--5--5--5--|----------------------------------
                                                                        

    Bridge                                                              
E-----------------------------------------------------------------------
B-----------------------------------------------------------------------
G-----------------------------------------------------------------------
D---x--x--x--x--5-----x--x--x--x--5-----x--x--x--x--7-----x--x--x--x----
A---x--x--x--x--5-----x--x--x--x--5-----x--x--x--x--7-----x--x--x--x----
E---x--x--x--x--3-----x--x--x--x--3-----x--x--x--x--5-----x--x--x--x----
                                                                        

                                                                        
E-----------------------------------------------------------------------
B-----------------------------------------------------------------------
G---------------------------------------------------------7-------------
D---7-----x--x--x--x--4-----x--x--x--x--4-----x--x--x--x--7-----x--x----
A---7-----x--x--x--x--4-----x--x--x--x--4-----x--x--x--x--5-----x--x----
E---5-----x--x--x--x--2-----x--x--x--x--2-----x--x--x--x--------x--x----
                                                                        

                                                                        
E------------|----------------------------------------------------------
B------------|----------------------------------------------------------
G------------|----------------------------------------------------------
D---x--x--5--|----------------------------------------------------------
A---x--x--5--|----------------------------------------------------------
E---x--x--3--|----------------------------------------------------------
                                                                        

    Solo                                                                
E-----------------------------------------------------------------------
B---10--10-----8--7--8-----7h8p7-----------8--------10--10-----8--7-----
G------------------------------------7--9-----9-------------------------
D-----------------------------------------------------------------------
A-----------------------------------------------------------------------
E-----------------------------------------------------------------------
                                                                        

                                                                        
E-----------------------------------------------------------------------
B---8-----7h8p7-----------8--------10--10-----8--7--8-----7h8p7---------
G-------------------7--9-----7------------------------------------------
D-----------------------------------------------------------------------
A-----------------------------------------------------------------------
E-----------------------------------------------------------------------
                                                                        

                                                                        
E---------------------------------------------------------10~~~--|------
B---------8--------10--10-----8--7--8-----7h8p7------------------|------
G---7--9-----9--------------------------------------7--9---------|------
D----------------------------------------------------------------|------
A----------------------------------------------------------------|------
E----------------------------------------------------------------|------
                                                                        

    Ending                                                              
E------------------2-----------2-----------2-----------------------5----
B---------------3-----3-----3-----3-----3-----3-----------------5-------
G---6--7-----2-----------0-----------2-----------------------6----------
D---6--7--------------------------------------------------7-------------
A---4--5-----------------------------------------------7----------------
E---------------------------------------------------5-------------------
                                                                        

                                                                        
E---||------------------------------------------------------------------
B---||------------------------------------------------------------------
G---||------------------------------------------------------------------
D---||------------------------------------------------------------------
A---||------------------------------------------------------------------
E---||------------------------------------------------------------------





Comments


Popular Uncle Brian tabs & chords
On The Jazz 1 Bass Tabs
Postcards 1 Bass Tabs
Postcards Tabs
Postcards 1 Tabs
Were Going To Ibiza Tabs
Were Going To Ibiza 1 Tabs


Song lyrics



↑ Back to top | Tablatures and chords are parodies/interpretations of the original songs. You may use it for private study, scholarship, research or language learning purposes only
© 2014 AZChords.com Contact us | Privacy policy | DMCA | Add/correct tabs | Request tabs | Top 50 tabs