>
 >
Mad World

Mad World Guitar Tabs

Ulli Boegershausen - Mad World chords, tabs, tablatures, lyrics

Guitar lessons | Add/correct | Request | Top 50 tabs Artists:  A B C D E F G H I J K L M N O P Q R S T U V W X Y Z 0-9

Mad World Guitar Tabs – Ulli Boegershausen

CD, Sheet music, Poster

Do you like Mad World? Share with your friends now
Tabs

Capo on 5. fret
Track 1: Track 1

E|-----0---------------------------|----------------------------|-----0---------------------------|
B|-1-------0---1-------0-----------|------------------------1---|-1-------0---1-------0---1---3---|
G|-----------------2-------0-------|----------------------------|-----------------2---------------|
D|---------2---------------2---4---|--------2-------0-----------|---------2---------------2-------|
A|-0---------------0---------------|----0---------------0-------|-0---------------0---------------|
D|---------------------------------|-0----------0---------------|---------------------------------|


E|---------------------------------|-----0-------------------------|------------------------------|
B|---------------------------------|-1-------0---1-------0---------|--------------------------1---|
G|-------------0-------------------|-----------------2-------0-----|------------------------------|
D|---------0-------4---2---0-------|---------2---------------2---4-|----------2-------0-----------|
A|-----0-----------------------0---|-0---------------0-------------|------0---------------0-------|
D|-0-------------------------------|-------------------------------|-0------------0---------------|


E|-----0---------------------------|-----------------------|------------------------------|
B|-1-------0---1-------0---1---3---|-----------------------|--------------1---1-----------|
G|-----------------2---------------|-------------0---------|------2---2-----------2---2---|
D|---------0---------------0-------|---------0-------4-----|------2---------------2-------|
A|-0---------------0---------------|-----0-----------------|-0------------0---------------|
D|---------------------------------|-0---------------------|------------------------------|


E|-0---0-------0----------------|------------------------------|---------------------------------|
B|-1---1---------------1--------|-3---3-------3-------0--------|-3---3-------3-------1---0-------|
G|------------------------------|-4----------------------------|-2---------------------------2---|
D|---------2---------------2----|---------0---------------0----|---------0---------------0-------|
A|-3---------------3------------|------------------------------|---------------------------------|
D|------------------------------|-5---------------5------------|-0---------------0---------------|


E|----------------------0---0---|-2------------2---2-----------|----------------------0---0---|
B|--------------1---1---1-------|-3----3-------3-------3---3---|--------------1---1---1---1---|
G|------2---2---2---------------|------2---------------2-------|-2--------2---2---------------|
D|------2-----------------------|------0---------------0-------|------2-----------------------|
A|-0------------0---------------|----------0-------------------|-0------------0---------------|
D|------------------------------|-0------------0---------------|------------------------------|


E|-2---------------2---2-----------|----------------------0---0-|-2---2-----------2---2-----------|
B|-3-------3-------3-------3---3---|--------------1---1---1---1-|-3---3---3-------3-------3---3---|
G|---------2---------------2-------|-2--------2---2-------------|---------2---------------2-------|
D|---------0---0-----------0-------|------2---------------------|---------0---0-----------0-------|
A|-----0-------0-------------------|-0------------0-------------|-------------0-------------------|
D|-0---------------0---------------|----------------------------|-0---0-----------0---------------|


E|----------------------0---0---|-2---------------2---2---------|-------------------------0-------|
B|--------------1---1---1---1---|-----3---3---3-----------3---3-|-----------------1---1---0-------|
G|-2--------2---2---------------|---------2---------------2-----|---------0---------------0---2---|
D|------2-----------------------|---------0---0-----------0-----|-----2-----------------------0---|
A|-0------------0---------------|-------------------------------|-0-----------0---------------0---|
D|------------------------------|-0---------------0-------------|-------------------------0-------|


E|-------------0-------------------|-------------------------0-----|-------------0----------------|
B|-----0---1-------0---1-----------|-----------------1---1---0-----|-----0---1-------0---1--------|
G|-------------------------2---0---|---------0---------------0---2-|-------------------------2----|
D|---------------------------------|-----2-----------------------0-|------------------------------|
A|-0-------------------------------|-0-----------0---------------0-|-0----------------------------|
D|---------------------------------|-------------------------0-----|------------------------------|


E|---------------------------------|-0---0-------0--------------|---------------------------------|
B|-----------------1---1-----------|-1---1---------------1------|-3---3-------3-------0-----------|
G|---------2---2-----------2---2---|----------------------------|-4-------------------------------|
D|---------2---------------2-------|---------2--------------2--2|---------0---------------0---0---|
A|-0---0-----------0---------------|-3---------------3----------|---------------------------------|
D|---------------------------------|----------------------------|-5---------------5---------------|


E|---------------------------------|----------------------0---0---|-2------------2---2-----------|
B|-3---3-------3-------1---0-------|--------------1---1---1-------|-3----3-------3-------3---3---|
G|-2---------------------------2---|------2---2---2---------------|------2---------------2-------|
D|---------0---------------0-------|------2-----------------------|------0---------------0-------|
A|---------------------------------|-0------------0---------------|----------0-------------------|
D|-0---------------0---------------|------------------------------|-0------------0---------------|


E|----------------------0---0---|-2---------------2---2-----------|----------------------0---0---|
B|--------------1---1---1---1---|-3-------3-------3-------3---3---|--------------1---1---1---1---|
G|-2--------2---2---------------|---------2---------------2-------|-2--------2---2---------------|
D|------2-----------------------|---------0---0-----------0-------|------2-----------------------|
A|-0------------0---------------|-----0-------0-------------------|-0------------0---------------|
D|------------------------------|-0---------------0---------------|------------------------------|


|-2---2-----------2---2-----------|----------------------0---0--|-2---------------2---2-----------|
|-3---3---3-------3-------3---3---|--------------1---1---1---1--|-----3---3---3-----------3---3---|
|---------2---------------2-------|-2--------2---2--------------|---------2---------------2-------|
|---------0---0-----------0-------|------2----------------------|---------0---0-----------0-------|
|-------------0-------------------|-0------------0--------------|---------------------------------|
|-0---0-----------0---------------|-----------------------------|-0---------------0---------------|


|-------------------------0-------|-------------0-----------------|-----------------------0-------|
|-----------------1---1---0-------|-----0---1-------0---1---------|---------------1---1---0-------|
|---------0---------------0---2---|-------------------------2---0-|-------0---------------0---2---|
|-----2-----------------------0---|-------------------------------|---2-----------------------0---|
|-0-----------0---------------0---|-0-----------------------------|0-----------0---------------0---|
|-------------------------0-------|-------------------------------|-----------------------0-------|


E|-------------0-------------------|-----0------------------------|------------------------------|
B|-----0---1-------0---1-----------|-1-------0---1-------0--------|--------------------------1---|
G|-------------------------2---2---|-----------------2-------0----|------------------------------|
D|---------------------------------|---------2---------------2---4|----------2-------0-----------|
A|-0-------------------------------|-0---------------0------------|------0---------------0-------|
D|---------------------------------|------------------------------|-0------------0---------------|


|-----0---------------------------|-----------------------------|-----0---------------------------|
|-1-------0---1-------0---1---3---|-----------------------------|-1-------0---1-------0-----------|
|-----------------2---------------|-------------0---------------|-----------------2-------0-------|
|---------2---------------2-------|---------0-------4---2---0---|---------2---------------2---4---|
|-0---------------0---------------|-----0---------------------0-|-0---------------0---------------|
|---------------------------------|-0---------------------------|---------------------------------|


E|---------------------------------|-----0---------------------------|-----------------------|
B|-----------------------------1---|-1-------0---1-------0---1---3---|-----------------------|
G|---------------------------------|-----------------2---------------|-------------0---------|
D|-------------2-------0-----------|---------2---------------2-------|---------0-------4-----|
A|---------0---------------0-------|-0---------------0---------------|-----0-----------------|
D|-0---------------0---------------|---------------------------------|-0---------------------|


E|--------|
B|--------|
G|--------|
D|-4------|
A|--------|
D|--------|





Comments


Popular Ulli Boegershausen tabs & chords
Dear Mr President Tabs
Hit The Road Jack Tabs
Hit The Road Jack 2 Tabs
Holy Night Silent Night Tabs
In A Constant State Of Flux Tabs
It Could Have Been Tabs
Kiss From A Rose Tabs
Right Here Waiting Tabs
Wake Me Up When September Ends Tabs
You Are The Sunshine Of My Life Intro Tabs


Song lyrics



↑ Back to top | Tablatures and chords are parodies/interpretations of the original songs. You may use it for private study, scholarship, research or language learning purposes only
© 2014 AZChords.com Contact us | Privacy policy | DMCA | Add/correct tabs | Request tabs | Top 50 tabs