>
 >
In A Constant State Of Flux

In A Constant State Of Flux Guitar Tabs

Ulli Boegershausen - In A Constant State Of Flux chords, tabs, tablatures, lyrics

Guitar lessons | Add/correct | Request | Top 50 tabs Artists:  A B C D E F G H I J K L M N O P Q R S T U V W X Y Z 0-9

In A Constant State Of Flux Guitar Tabs – Ulli Boegershausen

CD, Sheet music, Poster

Do you like In A Constant State Of Flux? Share with your friends now
Tabs
In a Constant State of Flux                           


                                                     Ulli Boegershausen
Guitar (Capo 4)



     >                   >                    >                  
     Q    E  E  E  E     E  E  E  E  E  E     Q    E  E  E   E   
D||-------------0-----|-----------0--------|-------------0h--2--|
B||----------3-----3--|--------3-----3-----|----------3---------|
G||-------2-----------|-----2-----------2--|-------0------------|
D||--0----------------|--3-----------------|--2-----------------|
A||-------------------|--------------------|--------------------|
D||-------------------|--------------------|--------------------|


  >          >           >                   >                  
  E   E   E  E  E  E     Q    E  E  E  E     E  E  E  E  E  E   
--3p--2p--0-----------|-------------0-----|-----------0--------|
-------------1--0-----|----------3-----3--|--------3-----3-----|
-------------------2--|-------2-----------|-----2-----------2--|
----------------------|--0----------------|--3-----------------|
--0----------3--------|-------------------|--------------------|
----------------------|-------------------|--------------------|


                                            >                 
  E  E  E  E  E  E     E  E  E  E  E  E     Q    E  E  E  E   
--------------------|--------2-----------|-------------0-----|
--------1--------3--|-----------------1--|----------3-----3--|
-----0--------0-----|-----0--------0-----|-------2-----------|
--2--------0--------|--------------------|--0----------------|
--------------------|--3--------0--------|-------------------|
--------------------|--------------------|-------------------|


  >                    >                    >          >         
  E  E  E  E  E  E     Q    E  E  E   E     E   E   E  E  E  E   
-----------0--------|-------------0h--2--|--3p--2p--0-----------|
--------3-----3-----|----------3---------|-------------1--0-----|
-----2-----------2--|-------0------------|-------------------2--|
--3-----------------|--2-----------------|----------------------|
--------------------|--------------------|--0----------3--------|
--------------------|--------------------|----------------------|


  >                   >                                       
  Q    E  E  E  E     E  E  E  E  E  E     E  E  E  E  E  E   
-------------0-----|-----------0--------|--------------------|
----------3-----3--|--------3-----3-----|--------1--------3--|
-------2-----------|-----2-----------2--|-----0--------0-----|
--0----------------|--3-----------------|--2--------3--------|
-------------------|--------------------|--------------------|
-------------------|--------------------|--------------------|


           >         >                    >                  
  E  E  E  Q.        E  E  E  E  E  E     E  E  E  E  E  E   
-----------0------|-----------0--------|-----------0--------|
--------1---------|--------1-----1-----|--------1-----1-----|
-----0------------|-----0-----------0--|-----0-----------0--|
--2---------------|--------------------|--------------------|
-----------0------|--1-----------------|--1-----------------|
------------------|--------------------|--------------------|


  >                    >                    >                   
  E  E  E  E  E  E     E  E  E  E  E  E     E  E  E  E  E   E   
-----------0--------|-----------0--------|-----------2--3p--2--|
--------5-----5-----|--------5-----5-----|--------3------------|
-----0-----------0--|-----0-----------0--|-----2---------------|
--------------------|--------------------|--0------------------|
--3-----------------|--3-----------------|---------------------|
--------------------|--------------------|---------------------|


  E  E   E  E  E  E     E  E  E  E  E  E     E  E  E  E  E  E   
---------------------|--------------------|--------------------|
--3--1p--0-----------|--------------------|--------------------|
------------2--0-----|--------0--2--0-----|--------------------|
------------------3--|--2--3-----------3--|--2--3--2--0--------|
---------------------|--------------------|--------------3--0--|
---------------------|--------------------|--------------------|


  >                    >                    >                  
  E  E  E  E  E  E     E  E  E  E  E  E     E  E  E  E  E  E   
-----------0--------|-----------0--------|-----------0--------|
--------1-----1-----|--------1-----1-----|--------5-----5-----|
-----0-----------0--|-----0-----------0--|-----0-----------0--|
--------------------|--------------------|--------------------|
--1-----------------|--1-----------------|--3-----------------|
--------------------|--------------------|--------------------|


  >                    >                                      
  E  E  E  E  E  E     E  E  E  E  E  E     E   E  E  Q.      
-----------0--------|-----------0--------|--2p--0-----3------|
--------5-----5-----|--------3-----3-----|---------3---------|
-----0-----------0--|-----2-----------2--|-------------------|
--------------------|--0-----------------|-------------------|
--3-----------------|--------------------|--3---------2------|
--------------------|--------------------|-------------------|


  >                    >      ^         ^                   >                  
  E  E  E  E  E  E     Q.     Q.        Q    E  E  E  E     E  E  E  E  E  E   
-----------0--------|----------------|-------------0-----|-----------0--------|
--------3-----3-----|--3------2------|----------3-----3--|--------3-----3-----|
-----0-----------0--|--0------0------|-------2-----------|-----2-----------2--|
--------------------|---------2------|-------------------|--3-----------------|
--1-----------------|--0-------------|-------------------|--------------------|
--------------------|----------------|--0----------------|--------------------|


  >                    >          >           ^                 
  Q    E  E  E   E     E   E   E  E  E  E     Q    E  E  E  E   
-------------0h--2--|--3p--2p--0-----------|-------------0-----|
----------3---------|-------------1--0-----|----------3-----3--|
-------0------------|-------------------2--|-------2-----------|
--2-----------------|----------------------|-------------------|
--------------------|--0----------3--------|-------------------|
--------------------|----------------------|--0----------------|


  >                                                            
  E  E  E  E  E  E     E  E  E  E  E  E     E  E  E  E  E  E   
-----------0--------|--------------------|--------2-----------|
--------3-----3-----|--------1--------3--|-----------------1--|
-----2-----------2--|-----0--------0-----|-----0--------0-----|
--3-----------------|--2--------0--------|--------------------|
--------------------|--------------------|--3--------0--------|
--------------------|--------------------|--------------------|


  ^                   >                    >                  
  Q    E  E  E  E     E  E  E  E  E  E     Q    E  E  E   E   
-------------0-----|-----------0--------|-------------0h--2--|
----------3-----3--|--------3-----3-----|----------3---------|
-------2-----------|-----2-----------2--|-------0------------|
-------------------|--3-----------------|--2-----------------|
-------------------|--------------------|--------------------|
--0----------------|--------------------|--------------------|


  >          >           ^                   >                  
  E   E   E  E  E  E     Q    E  E  E  E     E  E  E  E  E  E   
--3p--2p--0-----------|-------------0-----|-----------0--------|
-------------1--0-----|----------3-----3--|--------3-----3-----|
-------------------2--|-------2-----------|-----2-----------2--|
----------------------|-------------------|--3-----------------|
--0----------3--------|-------------------|--------------------|
----------------------|--0----------------|--------------------|


                                >         >                 
  E  E  E  E  E  E     E  E  E  Q.        Q    E  E  E  E   
--------------------|------------------|----------------0--|
--------1--------3--|--------1---------|-------------5-----|
-----0--------0-----|-----0------------|----------0--------|
--2--------3--------|--2--------0------|-------5-----------|
--------------------|------------------|--3----------------|
--------------------|------------------|-------------------|


                       >                                        
  E  E  E  E  E  E     Q    E  E  E   E     E  E  E  E   E  E   
-----------------0--|--------------------|---------------------|
--5-----------5-----|-------------3h--5--|--3--0---------------|
-----0-----0--------|----------4---------|--------0------------|
--------5-----------|-------0------------|-----------3p--0-----|
--------------------|--------------------|------------------2--|
--------------------|--5-----------------|---------------------|


  >                                        >                  
  Q    E  E  E  E     E  E  E  E  E  E     Q    E  E  E   E   
----------------0--|-----------------0--|--------------------|
-------------5-----|--5-----------5-----|-------------3h--5--|
----------0--------|-----0-----0--------|----------4---------|
-------5-----------|--------5-----------|-------0------------|
--3----------------|--------------------|--------------------|
-------------------|--------------------|--5-----------------|


                       >                                       
  E  E  E  E  E  E     Q    E  E  E  E     E  E  E  E   E  E   
--------------------|----------------0--|-----------2p--0-----|
--3--0--------------|-------------1-----|--1---------------1--|
--------0-----------|----------0--------|-----0---------------|
-----------0--2--3--|-------2-----------|--------2------------|
--------------------|--0----------------|---------------------|
--------------------|-------------------|---------------------|


  >                                         >                 
  Q    E  E  E  E     E  E  E  E   E  E     Q    E  E  E  E   
----------------0--|---------------------|----------------0--|
-------------1-----|--1--------1p--0-----|-------------1-----|
----------2--------|-----2------------2--|----------0--------|
-------0-----------|--------0------------|-------2-----------|
-------------------|---------------------|--0----------------|
--3----------------|---------------------|-------------------|


  >                    >                                         
  E  E  E  E  E  E     Q    E  E  E   E     E  E   E  E   E  E   
--------------------|--------------------|--0-------------------|
-----------0--------|-------------0h--1--|-----1p--0------------|
--------0-----0-----|----------2---------|------------2p--0-----|
-----0-----------0--|-------0------------|-------------------0--|
--------------------|--------------------|----------------------|
--2-----------------|--3-----------------|----------------------|


  >                                        >                 
  Q    E  E  E  E     E  E  E  E  E  E     Q    E  E  E  E   
----------------0--|-----------------0--|----------------0--|
-------------1-----|--1-----------1-----|-------------5-----|
----------0--------|-----0-----0--------|----------0--------|
-------3-----------|--------3-----------|-------2-----------|
--1----------------|--------------------|--3----------------|
-------------------|--------------------|-------------------|


                       >                                         
  E  E  E  E  E  E     Q    E  E  E  E     E   E  E   E  E   E   
-----------------0--|----------------0--|--2p--0----------------|
--5-----------5-----|-------------1-----|---------1p--0---------|
-----0-----0--------|----------0--------|----------------2p--0--|
--------2-----------|-------2-----------|-----------------------|
--------------------|--0----------------|-----------------------|
--------------------|-------------------|-----------------------|


  >                    >                     ^                 
  E  E  E  E  E  E     E  E  E  E   E  E     Q    E  E  E  E   
--------------------|---------------------|-------------0-----|
-----------3--------|-----------2p--0--2--|----------3-----3--|
--------0-----0-----|--------0------------|-------2-----------|
-----3-----------3--|-----2---------------|-------------------|
--1-----------------|--0------------------|-------------------|
--------------------|---------------------|--0----------------|


  >                    >                    >          >         
  E  E  E  E  E  E     Q    E  E  E   E     E   E   E  E  E  E   
-----------0--------|-------------0h--2--|--3p--2p--0-----------|
--------3-----3-----|----------3---------|-------------1--0-----|
-----2-----------2--|-------0------------|-------------------2--|
--3-----------------|--2-----------------|----------------------|
--------------------|--------------------|--0----------3--------|
--------------------|--------------------|----------------------|


  ^                   >                                       
  Q    E  E  E  E     E  E  E  E  E  E     E  E  E  E  E  E   
-------------0-----|-----------0--------|--------------------|
----------3-----3--|--------3-----3-----|--------1--------3--|
-------2-----------|-----2-----------2--|-----0--------0-----|
-------------------|--3-----------------|--2--------0--------|
-------------------|--------------------|--------------------|
--0----------------|--------------------|--------------------|


                       ^                   >                  
  E  E  E  E  E  E     Q    E  E  E  E     E  E  E  E  E  E   
--------2-----------|-------------0-----|-----------0--------|
-----------------1--|----------3-----3--|--------3-----3-----|
-----0--------0-----|-------2-----------|-----2-----------2--|
--------------------|-------------------|--3-----------------|
--3--------0--------|-------------------|--------------------|
--------------------|--0----------------|--------------------|


  >                    >          >           ^                 
  Q    E  E  E   E     E   E   E  E  E  E     Q    E  E  E  E   
-------------0h--2--|--3p--2p--0-----------|-------------0-----|
----------3---------|-------------1--0-----|----------3-----3--|
-------0------------|-------------------2--|-------2-----------|
--2-----------------|----------------------|-------------------|
--------------------|--0----------3--------|-------------------|
--------------------|----------------------|--0----------------|


  >                    >        >           >        >       
  E  E  E  E  E  E     E  E  E  E  E  E     E  E  E  Q.      
-----------0--------|--------------------|------------------|
--------3-----3-----|--------3--------3--|--------3---------|
-----2-----------2--|-----0--------0-----|-----0------------|
--3-----------------|--2--------0--------|------------------|
--------------------|--------------------|--3--------0------|
--------------------|--------------------|------------------|


  ^                   >                   >                  
  Q    E  E  E  E     Q    E  E  E  E     Q    E  E   E  E   
--4----------------|-------------4-----|-----------------0--|
--3-------------3--|----------3-----3--|----------0h--2-----|
--2----------2-----|-------2-----------|--------------------|
----------0--------|-------------------|-------0------------|
-------0-----------|--4----------------|--2-----------------|
--0----------------|-------------------|--------------------|


                          ^                   >                 
  E   E  E   E  E   E     Q    E  E  E  E     Q    E  E  E  E   
--2p--0----------------|--4----------------|-------------4-----|
---------2p--0---------|--3-------------3--|----------3-----3--|
----------------2p--0--|--2----------2-----|-------2-----------|
-----------------------|----------0--------|-------------------|
--0--------------------|-------0-----------|--4----------------|
-----------------------|--0----------------|-------------------|


  >                                            >                  
  Q    E  E   E  E     E   E  E   E  E   E     Q    E  E  E   E   
-----------------0--|-----------------------|--2----------2p--0--|
----------0h--2-----|--2p--0----------------|--3-------3---------|
--------------------|---------2p--0---------|--0----0------------|
-------0------------|----------------2p--0--|--------------------|
--2-----------------|--0--------------------|--4-----------------|
--------------------|-----------------------|--------------------|


  >                    >                                          
  Q    E  E  E   E     Q    E  E   E  E     E   E  E   E  E   E   
--------------------|-----------------0--|-----------------------|
--2----------0h--2--|--3-------0h--2-----|--2p--0----------------|
--0-------0---------|--0-----------------|---------2p--0---------|
-------0------------|-------0------------|----------------2p--0--|
--------------------|--------------------|--0--------------------|
--5-----------------|--2-----------------|-----------------------|


  >                    >                                          
  Q    E  E  E   E     Q    E  E   E  E     E   E  E   E  E   E   
--2----------2h--4--|--5--------------0--|-----------------------|
--3-------3---------|--0-------0h--2-----|--2p--0----------------|
-------0------------|--------------------|---------2p--0---------|
--------------------|-------0------------|----------------2p--0--|
--4-----------------|--------------------|--0--------------------|
--------------------|--2-----------------|-----------------------|


  E   E  E   E  E   E     E  E   E  E   E  E     E  E  E   E  E   E   
--2p--0----------------|--4--2p--0------------|--5--4--2p--0---------|
---------2p--0---------|------------2p--0-----|---------------2p--0--|
----------------2p--0--|-------------------2--|----------------------|
-----------------------|----------------------|----------------------|
--0--------------------|--0-------------------|--0-------------------|
-----------------------|----------------------|----------------------|


  E  E  E   E  E   E     E  E   E  E  E  E     E  E  E  E  E  E   
--7--5--4p--0---------|---------------------|--------------------|
---------------2p--0--|---------------------|--------------------|
----------------------|--2--0h--------------|--------------------|
----------------------|---------4--2--0-----|-----------0--2--4--|
--0-------------------|------------------4--|--0--2--4-----------|
----------------------|---------------------|--------------------|


                        >                                        
  E  E  E  E  E   E     Q    E  E  E  E     E  E   E  E   E  E   
---------------------|----------------5--|--4--2p--0------------|
--------0--2--3S--5--|--3----------3-----|------------2p--0-----|
--0--2---------------|--2-------2--------|-------------------2--|
---------------------|-------0-----------|----------------------|
---------------------|-------------------|--0-------------------|
---------------------|--0----------------|----------------------|


  >                                         >                 
  Q    E  E  E  E     E  E  E  E  E   E     Q    E  E  E  E   
-------------------|--7--9--7------------|----------------5--|
--0----------7--8--|-----------8--7p--0--|--3----------3-----|
----------0--------|---------------------|--2-------2--------|
-------0-----------|---------------------|-------0-----------|
--2----------------|--0------------------|-------------------|
-------------------|---------------------|--0----------------|


                         >                                       
  E  E   E  E   E  E     Q    E  E  E  E     E  E  E  E  E   E   
--4--2p--0------------|-------------------|--2--4--5--4--2p--0--|
------------2p--0-----|--0----------2--3--|---------------------|
-------------------2--|----------0--------|---------------------|
----------------------|-------0-----------|---------------------|
--0-------------------|--2----------------|--0------------------|
----------------------|-------------------|---------------------|


  >                                          >                 
  Q    E  E  E  E     E  E   E  E   E  E     Q    E  E  E  E   
----------------5--|--4--2p--0------------|-------------------|
--3----------3-----|------------2p--0-----|--0----------7--8--|
--2-------2--------|-------------------2--|----------0--------|
-------0-----------|----------------------|-------0-----------|
-------------------|--0-------------------|--2----------------|
--0----------------|----------------------|-------------------|


                        >                                        
  E  E  E  E  E   E     Q    E  E  E  E     E  E   E  E   E  E   
--7--9--7------------|----------------5--|--4--2p--0------------|
-----------8--7p--0--|--3----------3-----|------------2p--0-----|
---------------------|--2-------2--------|-------------------2--|
---------------------|-------0-----------|----------------------|
--0------------------|-------------------|--0-------------------|
---------------------|--0----------------|----------------------|


  >                                                       >                    
  Q    E  E  E  E     E  E  E  Q.                         E  E  E   E  E   E   
-------------------|--2--4--5--7~------|---------------|--7--5--4p--0---------|
--0----------2--3--|-------------------|---------------|---------------2p--0--|
----------0--------|-------------------|---------------|----------------------|
-------0-----------|-------------------|---------------|----------------------|
--2----------------|--0----------------|---------------|--0-------------------|
-------------------|-------------------|---------------|----------------------|


                        ^                   >                  
  E   E  E  E  E  E     Q    E  E  E  E     E  E  E  E  E  E   
---------------------|-------------0-----|-----------0--------|
---------------------|----------3-----3--|--------3-----3-----|
--2p--0--------------|-------2-----------|-----2-----------2--|
---------4--2--0-----|-------------------|--3-----------------|
------------------4--|-------------------|--------------------|
---------------------|--0----------------|--------------------|


  >                    >          >           ^                 
  Q    E  E  E   E     E   E   E  E  E  E     Q    E  E  E  E   
-------------0h--2--|--3p--2p--0-----------|-------------0-----|
----------3---------|-------------1--0-----|----------3-----3--|
-------0------------|-------------------2--|-------2-----------|
--2-----------------|----------------------|-------------------|
--------------------|--0----------3--------|-------------------|
--------------------|----------------------|--0----------------|


  >                                                            
  E  E  E  E  E  E     E  E  E  E  E  E     E  E  E  E  E  E   
-----------0--------|--------------------|--------2-----------|
--------3-----3-----|--------1--------3--|-----------------1--|
-----2-----------2--|-----0--------0-----|-----0--------0-----|
--3-----------------|--2--------0--------|--------------------|
--------------------|--------------------|--3--------0--------|
--------------------|--------------------|--------------------|


  ^                   >                    >                  
  Q    E  E  E  E     E  E  E  E  E  E     Q    E  E  E   E   
-------------0-----|-----------0--------|-------------0h--2--|
----------3-----3--|--------3-----3-----|----------3---------|
-------2-----------|-----2-----------2--|-------0------------|
-------------------|--3-----------------|--2-----------------|
-------------------|--------------------|--------------------|
--0----------------|--------------------|--------------------|


  >          >           ^                   >                  
  E   E   E  E  E  E     Q    E  E  E  E     E  E  E  E  E  E   
--3p--2p--0-----------|-------------0-----|-----------0--------|
-------------1--0-----|----------3-----3--|--------3-----3-----|
-------------------2--|-------2-----------|-----2-----------2--|
----------------------|-------------------|--3-----------------|
--0----------3--------|-------------------|--------------------|
----------------------|--0----------------|--------------------|


                                >         >                  
  E  E  E  E  E  E     E  E  E  Q.        E  E  E  E  E  E   
--------------------|-----------0------|-----------0--------|
--------1--------3--|--------1---------|--------1-----1-----|
-----0--------0-----|-----0------------|-----0-----------0--|
--2--------3--------|--2---------------|--------------------|
--------------------|-----------0------|--1-----------------|
--------------------|------------------|--------------------|


  >                    >                    >                  
  E  E  E  E  E  E     E  E  E  E  E  E     E  E  E  E  E  E   
-----------0--------|-----------0--------|-----------0--------|
--------1-----1-----|--------5-----5-----|--------5-----5-----|
-----0-----------0--|-----0-----------0--|-----0-----------0--|
--------------------|--------------------|--------------------|
--1-----------------|--3-----------------|--3-----------------|
--------------------|--------------------|--------------------|


  >                                                              
  E  E  E  E  E   E     E  E   E  E  E  E     E  E  E  E  E  E   
-----------2--3p--2--|---------------------|--------------------|
--------3------------|--3--1p--0-----------|--------------------|
-----2---------------|------------2--0-----|--------0--2--0-----|
--0------------------|------------------3--|--2--3-----------3--|
---------------------|---------------------|--------------------|
---------------------|---------------------|--------------------|


                       >                    >                  
  E  E  E  E  E  E     E  E  E  E  E  E     E  E  E  E  E  E   
--------------------|-----------0--------|-----------0--------|
--------------------|--------1-----1-----|--------1-----1-----|
--------------------|-----0-----------0--|-----0-----------0--|
--2--3--2--0--------|--------------------|--------------------|
--------------3--0--|--1-----------------|--1-----------------|
--------------------|--------------------|--------------------|


  >                    >                    >                  
  E  E  E  E  E  E     E  E  E  E  E  E     E  E  E  E  E  E   
-----------0--------|-----------0--------|-----------0--------|
--------5-----5-----|--------5-----5-----|--------3-----3-----|
-----0-----------0--|-----0-----------0--|-----2-----------2--|
--------------------|--------------------|--0-----------------|
--3-----------------|--3-----------------|--------------------|
--------------------|--------------------|--------------------|


                      >                    >      ^         ^                 
  E   E  E  Q.        E  E  E  E  E  E     Q.     Q.        Q    E  E  E  E   
--2p--0-----3------|-----------0--------|----------------|-------------0-----|
---------3---------|--------3-----3-----|--3------2------|----------3-----3--|
-------------------|-----0-----------0--|--0------0------|-------2-----------|
-------------------|--------------------|---------2------|-------------------|
--3---------2------|--1-----------------|--0-------------|-------------------|
-------------------|--------------------|----------------|--0----------------|


  >                    >                    >          >         
  E  E  E  E  E  E     Q    E  E  E   E     E   E   E  E  E  E   
-----------0--------|-------------0h--2--|--3p--2p--0-----------|
--------3-----3-----|----------3---------|-------------1--0-----|
-----2-----------2--|-------0------------|-------------------2--|
--3-----------------|--2-----------------|----------------------|
--------------------|--------------------|--0----------3--------|
--------------------|--------------------|----------------------|


  ^                   >                                       
  Q    E  E  E  E     E  E  E  E  E  E     E  E  E  E  E  E   
-------------0-----|-----------0--------|--------------------|
----------3-----3--|--------3-----3-----|--------1--------3--|
-------2-----------|-----2-----------2--|-----0--------0-----|
-------------------|--3-----------------|--2--------0--------|
-------------------|--------------------|--------------------|
--0----------------|--------------------|--------------------|


                       ^                   >                  
  E  E  E  E  E  E     Q    E  E  E  E     E  E  E  E  E  E   
--------2-----------|-------------0-----|-----------0--------|
-----------------1--|----------3-----3--|--------3-----3-----|
-----0--------0-----|-------2-----------|-----2-----------2--|
--------------------|-------------------|--3-----------------|
--3--------0--------|-------------------|--------------------|
--------------------|--0----------------|--------------------|


  >                    >          >           ^                 
  Q    E  E  E   E     E   E   E  E  E  E     Q    E  E  E  E   
-------------0h--2--|--3p--2p--0-----------|-------------0-----|
----------3---------|-------------1--0-----|----------3-----3--|
-------0------------|-------------------2--|-------2-----------|
--2-----------------|----------------------|-------------------|
--------------------|--0----------3--------|-------------------|
--------------------|----------------------|--0----------------|


  >                                                              ^              
  E  E  E  E  E  E     E  E  E  E  E  E     E  E  E  E  E  E     H.             
-----------0--------|--------0--------5--|--------------------|--0------------||
--------3-----3-----|-----5--------7-----|--------3--------2--|--3------------||
-----2-----------2--|--------------------|-----0--------0-----|--2------------||
--3-----------------|--5--------7--------|--------------------|--0------------||
--------------------|--------------------|--2--------0--------|--0------------||
--------------------|--------------------|--------------------|--0------------||




Duration Legend
---------------
W - whole
H - half
Q - quarter
E - 8th
S - 16th
T - 32nd
X - 64th
. - note dotted
|-n-|  - n-tuplets


Tablature Legend
----------------
L - tied note
x - dead note
g - grace note
(n) - ghost note
> - accentuded note
NH - natural harmonic
AH - artificial harmonic
TH - tapped harmonic
SH - semi harmonic
PH - pitch harmonic
h - hammer on
p - pull off
b - bend
br - bendRelease
pb - preBend
pbr - preBendRelease
brb - bendReleaseBend
\n/ - tremolo bar dip
\n - tremolo bar dive
-/n - tremolo bar Release up
/n\ - tremolo bar inverted dip
/n - tremolo bar return
-\n - tremolo bar Release down
S - shift slide
s - legato slide
/ -  slide into from below or out of upwards
\ -  slide into from above or out of downwards
~ - vibrato
W - wide vibrato
tr - trill
TP - tremolo picking
T - tapping
S - slap
P - pop
< - fade in
^ - brush up
v - brush down





Comments


Popular Ulli Boegershausen tabs & chords
Dear Mr President Tabs
Hit The Road Jack Tabs
Hit The Road Jack 2 Tabs
Hit The Road Jack Intro Tabs
Holy Night Silent Night Tabs
It Could Have Been Tabs
Mad World Tabs
Right Here Waiting Tabs
Wake Me Up When September Ends Tabs
You Are The Sunshine Of My Life Intro Tabs


Song lyrics



↑ Back to top | Tablatures and chords are parodies/interpretations of the original songs. You may use it for private study, scholarship, research or language learning purposes only
© 2014 AZChords.com Contact us | Privacy policy | DMCA | Add/correct tabs | Request tabs | Top 50 tabs