» » »

Warhead Tabs (ver.1)

Artists:  A B C D E F G H I J K L M N O P Q R S T U V W X Y Z # 

Warhead Tabs (ver.1)

Uk Subs
Rating:
4/5 (1 vote)

Hard to play? Try these video lessons and learn fast.
                Here's that catchy bass riff:
G|------------------------------------------------------------------|
D|-2-2-2-2-2-2-2-2--------------------------------------------------|
A|-----------------3-3-3-3-3-3-3-3-5-5-5-5-----3-3-5-5-5-5-----3-3--|
E|-----------------------------------------5-5-------------5-5------|

Verse riff:
e|-------------------------------------------|
B|-------------------------------------------|
G|-99-x-99-x-55-x-55-x-77-x-77-x-77-x-77-x---|
D|-99-x-99-x-55-x-55-x-77-x-77-x-77-x-77-x---|
A|-77-x-77-x-33-x-33-x-55-x-55-x-55-x-55-x---|
E|-------------------------------------------|

Chorus:
e|-2-----3-----------------------2-----3------------------------|
B|-4-----5-----------------------4-----5------------------------|
G|-4-----5----77-x-77-x-77-x-77--4-----5----77-x-77-x-77-x-77---|
D|-4-----5----77-x-77-x-77-x-77--4-----5----77-x-77-x-77-x-77---|
A|-2-----3----55-x-55-x-55-x-55--2-----3----55-x-55-x-55-x-55---|
E|--------------------------------------------------------------|

Solo riff:
e|-------------------------------------|
B|-------------------------------------|
G|-99999999-55555555-7777777777777777--|
D|-99999999-55555555-7777777777777777--|
A|-77777777-33333333-5555555555555555--|
E|-------------------------------------|

Alternative solo riff:
e|-------------------------------------------|
B|-------------------------------------------|
G|-99999999-55555555-7777----55-7777----55---|
D|-99999999-55555555-7777-77-55-7777-77-55---|
A|-77777777-33333333-5555-77-33-5555-77-33---|
E|------------------------55---------55------|

*Note* It's hard to figure out the solo riff because of
the bass line, so I'm giving you two options. Both sounds o.k
to me.
            
Hard to play? Try these video lessons and learn fast. | Correct




comments powered by Disqus
↑ Back to top | Tablatures and chords are parodies/interpretations of the original songs. You may use it for private study, scholarship, research or language learning purposes only