>
 >
Not A Love Song 1

Not A Love Song 1 Guitar Tabs

Uh Huh Her - Not A Love Song 1 chords, tabs, tablatures, lyrics

Guitar lessons | Add/correct | Request | Top 50 tabs Artists:  A B C D E F G H I J K L M N O P Q R S T U V W X Y Z 0-9

Not A Love Song 1 Guitar Tabs – Uh Huh Her

CD, Sheet music, Poster

Do you like Not A Love Song 1? Share with your friends now
TabsTabs v2


Intro: 0:00
--------------------------------------------------|
--------------------------------------------------|
--------------------------------------------------|
-----3-----3-----3-----3-----2-----2-----0-----0--|
--------------------------------------------------|
-3-3---3-3---3-3---3-3---3-3---3-3---3-3---3-3----|

Verse: 0:08

The city's dead by morning…

-3-3-3-3-3-3-----------0-1-3-1-0----------3-3-3-3-3-3---------0-1-3-1-0---|
-------------3-----3-------------3--------------------3-----3-----------3-|
--------------------------------------------------------------------------|
--------------------------------------------------------------------------|
--------------------------------------------------------------------------|
--------------------------------------------------------------------------|

0:23 How much are you likin'…

-----------0-------0-1-3-1-0-1------------------1-0---------1-------|
-0-0-0/1-3-------3-------------3----3/1-0-0-0-1-----3-3-3-3---3-1/0-|
--------------------------------------------------------------------|
--------------------------------------------------------------------|
--------------------------------------------------------------------|
--------------------------------------------------------------------|

Chorus:0:38

I'll sing you a love…

-3-3-8-6-5-3-8-6-5-3-6-3-------3-5-6-8-6-5-3--8-6-5-3-6-3----|
-----------------------------------------------------------3-|
-------------------------------------------------------------|
-------------------------------------------------------------|
-------------------------------------------------------------|
-------------------------------------------------------------|

0:51 Oh I want to fall away…

-3-3-5-6-3-5-5/6-5-1-1-1-6-3-------3-5-6-8-6-5-3-8-6-5-3-3-----|
------------------------------------------------------------3--|
---------------------------------------------------------------|
---------------------------------------------------------------|
---------------------------------------------------------------|
---------------------------------------------------------------|

Intro: 1:07

-------------------------------------------------|
-------------------------------------------------|
-------------------------------------------------|
-----3-----3-----3-----3-----2-----2-----0-----0-|
-------------------------------------------------|
-3-3---3-3---3-3---3-3---3-3---3-3---3-3---3-3---|

Verse 2: 1:14

I still disappoint you…

-3-3-3-3-3-3-------0-1-3-1-0-1-----3-3-3-3-3-----0-1-----1-1-1-0---|
-------------3-3-3-------------3-------------3-3-----1-1---------1-|
-------------------------------------------------------------------|
-------------------------------------------------------------------|
-------------------------------------------------------------------|
-------------------------------------------------------------------|

1:29 You may waste no time dear…

--------------------1-1-3---3-7-8-7-5-3-3-3-3-3-7-3-1--|
-0-0-0/1--3-5/3-3-5------------------------------------|
-------------------------------------------------------|
-------------------------------------------------------|
-------------------------------------------------------|
-------------------------------------------------------|

Chorus:

1:14 I'll sing you a love…

-3-3-8-6-5-3-8-6-5-3-6-3---3-5-6-8-6-5-3---8-6-5-3-6-3---|
-------------------------------------------------------3-|
---------------------------------------------------------|
---------------------------------------------------------|
---------------------------------------------------------|
---------------------------------------------------------|

1:58 Oh I want to fall away…

-3-3-5-6-3-5--5/6--5-1-1-1-6-3----3-5-6-8-6-5-3-8-6-5-3---|
--------------------------------------------------------3-|
----------------------------------------------------------|
----------------------------------------------------------|
----------------------------------------------------------|
----------------------------------------------------------|

Intro: 2:14

-------------------------------------------------|
-------------------------------------------------|
-------------------------------------------------|
-----3-----3-----3-----3-----2-----2-----0-----0-|
-------------------------------------------------|
-3-3---3-3---3-3---3-3---3-3---3-3---3-3---3-3---|


-------------------------------------------------|
-------------------------------------------------|
-------------------------------------------------|
-----3-----3-----3-----3-----2-----2-----0-----0-|
-------------------------------------------------|
-3-3---3-3---3-3---3-3---3-3---3-3---3-3---3-3---|

2:28 But if you can't say love anyway…

-3-3-5-9-9-9-5-3-3-3-5-7----3-5-6-8-6-5-3-8-6-5-3-3---|
----------------------------------------------------3-|
------------------------------------------------------|
------------------------------------------------------|
------------------------------------------------------|
------------------------------------------------------|

2:41 Oh I want to fall away…

-3-3-5-6-3-5/6-5-1-1-1-6-3---3-5-6-8-6-5-3-8-6-5-3-3---|
-----------------------------------------------------3-|
-------------------------------------------------------|
-------------------------------------------------------|
-------------------------------------------------------|
-------------------------------------------------------|





Comments


Popular Uh Huh Her tabs & chords
Common Reaction 1 Bass Tabs
Ive Had Enough Bass Tabs
Mystery Lights Bass Tabs
Dreamer Chords
I See Red Chords
Say So Chords
Another Case Tabs
Dance With Me Tabs
Ive Had Enough 2 Tabs
Dreamer Ukulele


Song lyrics



↑ Back to top | Tablatures and chords are parodies/interpretations of the original songs. You may use it for private study, scholarship, research or language learning purposes only
© 2014 AZChords.com Contact us | Privacy policy | DMCA | Add/correct tabs | Request tabs | Top 50 tabs