» » »

Uh Huh Her, Ive Had Enough Tabs (ver.1)

Artists:  A B C D E F G H I J K L M N O P Q R S T U V W X Y Z # 

Ive Had Enough Tabs (ver.1)

Uh Huh Her Tabs
Rating:
0/5 (0 votes)
Ive Had Enough lessons Tabs too difficult? Try these video lessons and learn fast
                -------------------------------------------------------------------------------
                             I'VE HAD ENOUGH - UH HUH HER
-------------------------------------------------------------------------------
 
Tuning: Standard Tuning

Intro
e|---------------------------------------------------------------------------|
B|---------------------------------------------------------------------------|
G|--99--999--999--999--999--999--999--999--9/555--555--5/--------------------|
D|--xx--xxx--xxx--xxx--xxx--xxx--xxx--xxx--x/xxx--xxx--x/----/77--777--7-----|
A|--77--777--777--777--777--777--777--777--7/333--333--3/----/xx--xxx--x-----| x 2
E|-----------------------------------------------------------/55--555--5-----|

e|---------------------------------------------------------------------------|
B|---------------------------------------------------------------------------|
G|--1616--161616--16-----2121--212121--21/-----------------------------------|
D|--xxxx--xxxxxx--xx-----xxxx--xxxxxx--xx/-----------------------------------|
A|--1414--141414--14-----1919--191919--19/-----------------------------------|
E|---------------------------------------------------------------------------|

e|---------------------------------------------------------------------------|
B|---------------------------------------------------------------------------|
G|--/9-9-9-7-9~-9-9-9-11-11-9~/4-4-4-2-4~-4-4-4-2~-0~------------------------| 
D|---------------------------------------------------------------------------|
A|---------------------------------------------------------------------------|
E|---------------------------------------------------------------------------|

e|---------------------------------------------------------------------------|
B|---------------------------------------------------------------------------|
G|--/9-9-9-7-9~-9-9-9-11-11-9~/4-4-4-2-4~-4-4-4-2~-0~----------------/9~~----|
D|---------------------------------------------------------------------------|
A|---------------------------------------------------------------------------|
E|---------------------------------------------------------------------------|

Verse
e|------------------------------------------------------------------------------------|
B|------7--8----88-77---------88-7----------------7--8-----88--77-------88-77-5-7-5~--|
G|----9--9--9--9-------4~-4----------4~---------9--9--9--9--------4~-4----------------|
D|--9---------9-------------------------------9---------9-----------------------------|
A|------------------------------------------------------------------------------------|
E|------------------------------------------------------------------------------------|

e|-------------------------------------------------------------------------------|
B|------7--8----88-77---------88-7----------------7--8---------------------------|
G|----9--9--9--9-------4~-4----------4~---------9--9--9--9-----------------------|
D|--9---------9-------------------------------9---------9---99999999-------------|
A|----------------------------------------------------------77777777-------------|
E|-------------------------------------------------------------------------------|
                                                            ........
Chorus
e|---------------------------------------------------------------------------|
B|---------------------------------------------------------------------------|
G|--/9-9-9-7-9~-9-9-9-11-11-9~/4-4-4-2-4~-4-4-4-2~-0~------------------------|
D|---------------------------------------------------------------------------|
A|---------------------------------------------------------------------------|
E|---------------------------------------------------------------------------|

e|---------------------------------------------------------------------------|
B|---------------------------------------------------------------------------|
G|--/9-9-9-7-9~-9-9-9-11-11-9~/4-4-4-2-4~-4-4-4-2~-0~----------------/9~~----| 
D|---------------------------------------------------------------------------|
A|---------------------------------------------------------------------------|
E|---------------------------------------------------------------------------|

Verse
e|------------------------------------------------------------------------------------|
B|------7--8----88-77---------88-7----------------7--8-----88--77-------88-77-5-7-5~--|
G|----9--9--9--9-------4~-4----------4~---------9--9--9--9--------4~-4----------------|
D|--9---------9-------------------------------9---------9-----------------------------|
A|------------------------------------------------------------------------------------|
E|------------------------------------------------------------------------------------|

e|-------------------------------------------------------------------------------|
B|------7--8----88-77---------88-7----------------7--8---------------------------|
G|----9--9--9--9-------4~-4----------4~---------9--9--9--9-----------------------|
D|--9---------9-------------------------------9---------9---99999999-------------|
A|----------------------------------------------------------77777777-------------|
E|-------------------------------------------------------------------------------|
                                                            ........
Chorus
e|---------------------------------------------------------------------------|
B|---------------------------------------------------------------------------|
G|--/9-9-9-7-9~-9-9-9-11-11-9~/4-4-4-2-4~-4-4-4-2~-0~------------------------| x 2
D|---------------------------------------------------------------------------|
A|---------------------------------------------------------------------------|
E|---------------------------------------------------------------------------|

Bridge
e|----------------------------------------------------------------------------------|
B|----------------------------------------------------------------------------------|
G|--99--999--999--999--9/121212--121212--121212--121212--12/141414--141414--141414--|
D|--xx--xxx--xxx--xxx--x/xxxxxx--xxxxxx--xxxxxx--xxxxxx--xx/xxxxxx--xxxxxx--xxxxxx--| 
A|--77--777--777--777--7/101010--101010--101010--101010--10/121212--121212--121212--|
E|----------------------------------------------------------------------------------|

e|-------------------------------------------------|
B|-------------------------------------------------|
G|--141414--14/161616--161616--1616161616161616----|
D|--xxxxxx--xx/xxxxxx--xxxxxx--xxxxxxxxxxxxxxxx----| 
A|--121212--12/141414--141414--1414141414141414----|
E|-------------------------------------------------|

Chorus
e|---------------------------------------------------------------------------|
B|---------------------------------------------------------------------------|
G|--/9-9-9-7-9~-9-9-9-11-11-9~/4-4-4-2-4~-4-4-4-2~-0~------------------------| x 4
D|---------------------------------------------------------------------------|
A|---------------------------------------------------------------------------|
E|---------------------------------------------------------------------------|

Outro
e|----------------------------------------------------------------------------------|
B|----------------------------------------------------------------------------------|
G|--99--999--999--999--9/121212--121212--121212--121212--12/141414--141414--141414--|
D|--xx--xxx--xxx--xxx--x/xxxxxx--xxxxxx--xxxxxx--xxxxxx--xx/xxxxxx--xxxxxx--xxxxxx--| 
A|--77--777--777--777--7/101010--101010--101010--101010--10/121212--121212--121212--|
E|----------------------------------------------------------------------------------|

e|-------------------------------------------------|
B|-------------------------------------------------|
G|--141414--14/161616--161616/2121212121212121/----|
D|--xxxxxx--xx/xxxxxx--xxxxxx/xxxxxxxxxxxxxxxx/----| 
A|--121212--12/141414--141414/1919191919191919/----|
E|-------------------------------------------------|


************************************

| /   slide up
| \   slide down
| h   hammer-on
| p   pull-off
| ~   vibrato
| +   harmonic
| x   Mute note
| b   Bend
| pb  Pre-bend
| br  Bend release
| pbr Pre-bend release
| brb Bend release bend

************************************
            

comments powered by Disqus
↑ Back to top | Uh Huh Her Tabs for Ive Had Enough. Lyrics for acoustic guitar and electric guitar. Tablatures and chords are parodies/interpretations of the original songs. You may use it for private study, scholarship, research or language learning purposes only