» » »

Common Reaction Bass tabs (ver.2)

Artists:  A B C D E F G H I J K L M N O P Q R S T U V W X Y Z # 

Common Reaction Bass tabs (ver.2)

Uh Huh Her
Rating:
0/5 (0 votes)

Hard to play? Try these video lessons and learn fast.
                
  Intro

  ----------------------------------------------------------------|
  4-4-4-4-4-4-4-4-4-4-4-4-4-4-4-4-4-4-4-4-4-4-4-4-4-4-4-4-4-4-4-4-|
  ----------------------------------------------------------------|
  ----------------------------------------------------------------|

  ----------------------------------------------------------------|
  4-4-4-4-4-4-4-4-4-4-4-4-4-4-4-4-2-2-2-2-2-2-2-2-0-0-0-0-0-0-0-0-|
  ----------------------------------------------------------------|
  ----------------------------------------------------------------|

  Verse 1

| --------------------------2-2-2---------------------------------|
|o4-4-4-4-4-4-4-4-4-4-4-4-4-------4-4-4-4-4-4-4-4-4-4-4-4-4-4-4-4-|
|o----------------------------------------------------------------|
| ----------------------------------------------------------------|

  ---------------------------------------------------------------- |
  4-4-4-4-4-4-4-4-4-4-4-4-4-4-4-4-2-2-2-2-2-2-2-2-0-0-0-0-0-0-0-0-O|
  ----------------------------------------------------------------O|
  ---------------------------------------------------------------- | x2

  --------------------------------|
  4-4-4-4-4-4-4-4-4-4-4-4-4-4-4-4-|
  --------------------------------|
  --------------------------------|

  Chorus

  ----------------------------------------------------------------|
  ----------------------------------------------------------------|
  5-5-5-5-5-5-5-5-5-5-5-5-5-5-5-5---------------------------------|
  --------------------------------2-2-2-2-2-2-2-2-2-2-2-2-0-0-0-0-|

  ----------------------------------------------------------------|
  ------------------------------------------------4-4-4-4-4-4-4-4-|
  5-5-5-5-5-5-5-5-5-5-5-5-5-5-5-5-4-4-4-4-4-4-4-4-----------------|
  ----------------------------------------------------------------|

  ----------------------------------------------------------------|
  ----------------------------------------------------------------|
  5-5-5-5-5-5-5-5-5-5-5-5-5-5-5-5---------------------------------|
  --------------------------------2-2-2-2-2-2-2-2-2-2-2-2-0-0-0-0-|

  ----------------------------------------------------------------|
  ----------------------------------------------------------------|
  5-5-5-5-5-5-5-5-5-5-5-5-5-5-5-5-4-4-4-4-4-4-4-4-4-4-4-2-2-2-0-0-|
  ----------------------------------------------------------------|

  Bridge

  ----------------------------------------------------------------|
  --------------------------------4-4-4-4-4-4-4-4-4-4-4-4-4-4-4-4-|
  ----------------------------------------------------------------|
  2-2-2-2-2-2-2-2-2-2-2-2-2-2-2-2---------------------------------|

  --------------------------------|
  2-2-2-2-2-2-2-2-0-0-0-0-0-0-0-0-|
  --------------------------------|
  --------------------------------|

  Verse 2

  ----------------------------------------------------------------|
  4-4-4-4-4-4-4-4-4-4-4-4-4-4-4-4-4-4-4-4-4-4-4-4-4-4-4-4-4-4-4-4-|
  ----------------------------------------------------------------|
  ----------------------------------------------------------------|

  ----------------------------------------------------------------|
  4-4-4-4-4-4-4-4-4-4-4-4-4-4-4-4-2-2-2-2-2-2-2-2-0-0-0-0-0-0-0-0-|
  ----------------------------------------------------------------|
  ----------------------------------------------------------------|

  ------------------------4-4-2-2---------------------------------|
  4-4-4-4-4-4-4-4-4-4-4-4---------4-4-4-4-4-4-4-4-4-4-4-4-4-4-4-4-|
  ----------------------------------------------------------------|
  ----------------------------------------------------------------|

  ----------------------------------------------------------------|
  4-4-4-4-4-4-4-4-4-4-4-4-4-4-4-4-2-2-2-2-2-2-2-2-0-0-0-0-0-0-0-0-|
  ----------------------------------------------------------------|
  ----------------------------------------------------------------|

  --------------------------------|
  4-4-4-4-4-4-4-4-4-4-4-4-4-4-4-4-|
  --------------------------------|
  --------------------------------|

  Chorus

  Bridge 2

  ----------------------------------------------------------------|
  ----------------------------------------------------------------|
  ----------------------------------------------------------------|
  2-2-2-2-2-2-2-2-2-2-2-2-2-2-2-2-2-2-2-2-2-2-2-2-2-2-2-2-2-2-2-2-|

  Verse 3

| ---------------------------------------------------------------- |
|o----------------------------------------------------------------o|
|o--------------------------------2-2-2-2-2-2-2-2-----------------o|
| 2-2-2-2-2-2-2-2-2-2-2-2-2-2-2-2-----------------0-0-0-0-0-0-0-0- | x4

  Chorus

  End

  ---------------|
  ---------------|
  ---------------|
  2--------------|
            
Hard to play? Try these video lessons and learn fast. | Correct




comments powered by Disqus
↑ Back to top | Tablatures and chords are parodies/interpretations of the original songs. You may use it for private study, scholarship, research or language learning purposes only