» » »

U2, The Ground Beneath Her Feet Bass tabs (ver.1)

Artists:  A B C D E F G H I J K L M N O P Q R S T U V W X Y Z # 

The Ground Beneath Her Feet Bass tabs (ver.1)

U2 Tabs
Rating:
0/5 (0 votes)
Hard to play? Try these video lessons and learn fast.
                (1)
G|--------|--------|--------|--------|
D|--------|--------|--------|--------|
A|--------|--------|--------|--------|
E|--------|--------|--------|--------|

Intro:
G| --------|--------|--------| --------|
D|10------\|5-------|6-------| 8-------|
A| --------|--------|--------| --------|
E|h8-------|--------|--------|h6-------|

G| --------|--------|--------|--------|
D|10------\|5-------|6-------|8-------|
A| --------|--------|--------|--------|
E|h8-------|--------|--------|--------|

Verse 1:
G| --------|--------|--------|--------|
D|10------\|5-------|6-------|8-------|
A| --------|--------|--------|--------|
E| --------|--------|--------|--------|

G| --------|--------|--------|--------|
D|10------\|5-------|6-------|8-------|
A| --------|--------|--------|--------|
E| --------|--------|--------|--------|

G| --------|--------|--------|--------|
D|10------\|5-------|6-------|8-------|
A| --------|--------|--------|--------|
E|h8-------|--------|--------|--------|

Chorus 1:
G| ----------------| ----------------| ----------------| ----------------|
D| 6---------------| 5---------------| 6---------------| 8---------------|
A| --------------3-| ----------------| --------------3-| ----------------|
E|h4---------4-6---|h3---------3-4-6-|h4---------4-6---|h6---------------|

Preverse 2:
G| 5---------------|----------------| ----------------| ----------------|
D| ----------------|5---------------| 6---------------| 8---------------|
A|h3---------------|----------3-5-6-| ----------------| ----------------|
E| ----------------|----------------|h4-------------4-|h6-------------6-|

G| 5---------------|----------------| ----------------| ----------------|
D| ----------------|5---------------| 6---------------| 8---------------|
A|h3---------------|----------3-5-6-| ----------------| ----------------|
E| ----------------|----------------|h4-------------4-|h6---------------|
 
Verse 2:
G| --------|--------|--------|--------|
D|10------\|5-------|6-------|8-------|
A| --------|--------|--------|--------|
E| --------|--------|--------|--------|

G| --------|--------|--------|--------|
D|10------\|5-------|6-------|8-------|
A| --------|--------|--------|--------|
E| --------|--------|--------|--------|

G| --------|--------|--------|--------|
D|10------\|5-------|6-------|8-------|
A| --------|--------|--------|--------|
E|h8-------|--------|--------|--------|

Chorus 2:
G| ----------------| ----------------| ----------------| ----------------|
D| 6---------------| 5---------------| 6---------------| 8---------------|
A| --------------3-| ----------------| --------------3-| ----------------|
E|h4---------4-6---|h3---------3-4-6-|h4---------4-6---|h6---------------|

Verse 3:
G|----------------|----------------|----------------|----------------|
D|----------------|----------------|----------------|----------------|
A|3-3-3---3---3---|----------------|----------------|----------------|
E|----------------|3---3---3---3---|4---4---4---4---|6---6---6-6-6---|

G|----------------|----------------|----------------|----------------|
D|----------------|----------------|----------------|----------------|
A|3-3-3---3---3---|----------------|----------------|----------------|
E|----------------|3---3---3---3---|4---4---4---4---|6---6---6-6-6---|

G|----------------|----------------|----------------|----------------|
D|----------------|----------------|----------------|----------------|
A|3-3-3---3---3---|----------------|----------------|----------------|
E|----------------|3---3---3---3---|4---4---4---4---|6---6---6-6-6---|

G|--------------------------------|--------------------------------|
D|--------------------------------|--------------------------------|
A|--------------------------------|--------------------------------|
E|4-4-4---4---4---4---4---4---4---|6-6-6---6---6---6---6---6-6-6---|

G|--------------------------------|
D|--------------------------------|
A|--------------------------------|
E|6-6-6---6---6---6---6---6-6-6---|

 
Bridge:
G|--------|--------|--------|--------|
D|--------|--------|--------|--------|
A|3-------|--------|--------|--------|
E|--------|--------|--------|--------|

G|--------|--------|--------|--------|
D|--------|--------|--------|--------|
A|--------|--------|6-------|--------|
E|4-------|--------|--------|6-------|

G| ----------------|-----------------|
D|10-----------10\-|8----------------|
A| ----------------|-----------------|
E| ----------------|-----------------|

G| ----------------------------------|
D| ----------------------------------|
A|11---------------------------11\---|
E| ----------------------------------|

G|----------------|----------------|
D|----------------|----------------|
A|----------------|----------------|
E|8----------8\---|6----------6\---|

G|----------------| ----------------|
D|----------------| ----------------|
A|----------------|10---------10\---|
E|4----------4/---| ----------------|

G|----------------|----------------|
D|----------------|----------------|
A|----------------|----------------|
E|4-4-4-4-4-4-4/--|6-6-6-6-6-6-6/--|

Solo: (x6)
G| --------------------|------------|--------------|-----------|
D|10-10-10--10--10-10\-|5-5-5--5--/-|6-6-6-6--6-6/-|8-8-8-8--\-|
A| --------------------|------------|--------------|-----------|
E| --------------------|------------|--------------|-----------|

Ending chorus: (4x)
G|---------------|------------|--------------|-----------|
D|---------------|------------|--------------|-----------|
A|---------------|------------|--------------|-----------|
E|8-8-8--8--8-8\-|3-3-3--3--/-|4-4-4-4--4-4/-|6-6-6-6--\-|

Ending: (2x)
G| --------------------|------------|--------------|-----------|
D|10-10-10--10--10-10\-|5-5-5--5--/-|6-6-6-6--6-6/-|8-8-8-8--\-|
A| --------------------|------------|--------------|-----------|
E| --------------------|------------|--------------|-----------|



     /
    /  .|
      |
      |
            

comments powered by Disqus
↑ Back to top | U2 Bass for The Ground Beneath Her Feet. Lyrics for acoustic guitar and electric guitar. Tablatures and chords are parodies/interpretations of the original songs. You may use it for private study, scholarship, research or language learning purposes only