» » »

U2, Sunday Bloody Sunday Tabs (ver.1)

Artists:  A B C D E F G H I J K L M N O P Q R S T U V W X Y Z # 

Sunday Bloody Sunday Tabs (ver.1)

U2 Tabs
Rating:
0/5 (0 votes)
Sunday Bloody Sunday lessons Tabs too difficult? Try these video lessons and learn fast
                PROPS GO TO: Mucky Maher

I figured this out from watching U2 concert videos. I have seen other tabs for Sunday Bloody Sunday but they dont sound right.


Intro Drums

Riff A

-------2-------2-------0-------0-------
-----3---3---3---2---3---3---3---3-----
---4-------2-------0-------0-------0---
---------------------------------------
---------------------------------------
--------------------------------------- 

Bridge is just a D Chord then Em 
followed be another D and then G Chord
 
  D        Em       D        G  
--2--------0--------2--------2---------
--3--------0--------3--------2---------
--2--------0--------2--------0---------
--0--------0--------0--------0---------
-----------2-----------------0---------
-----------2-----------------2---------
-----------0-----------------3---------

Chorus

--7--7---------------------------------
--7--7----7--7----12--12---12-12-12-12-
--7--7----7--7----12--12---12-12-12-12-
--9--9----7--7----12--12---12-12-12-12-
--9--9----5--5----10--10---10-10-10-10-
---------------------------------------

Repeat this a couple of times. 

Harmonics
Repeat this twice

---------------------------------------
-----------------(7)-------------------
------------(5)-----(7)---------------- 
-----(7)--(5)--------------------------
--(7)----------------------------------
---------------------------------------


Solo

(h stands for hammer-on)

---12-12-12-10-10---12-12-12-10-10--------------------------------------
----0--0--0--0--0----0--0--0--0--0------12-12-12-10-10---12-12-12-10-10-
-----------------------------------------0--0--0--0--0----0--0--0--0--0-

------------------------------------------------------
--10-10--8--8--8--7--7--7--5--5--5--3--3-h5--3--2--0--               
---0--0--0--0--0--0--0--0--0--------------------------
------------------------------------------------------
------------------------------------------------------
------------------------------------------------------

-------------------------------------------------10-10-9----------------
----0-2-3-2-3-5-3-5-7-5-7-8-7-8-10-8-10-12-10-12----------10-12-12------

After the solo the Edge plays some blocked strings he then goes back to the harmonics.
He then plays the chorus again.
This song is very easy to play. I would advise people to watch and listen to Sunday bloody sunday Live in concert.

This is the final Riff.

-------2-------2-------0-------0-----------2-------
-----3---3---3---2---3---3---3---3-------3---------
---4-------2-------0-------0-------0---4-----------
---------------------------------------------------
---------------------------------------------------
---------------------------------------------------
            
Submit corrections

comments powered by Disqus
↑ Back to top | U2 Tabs for Sunday Bloody Sunday. Lyrics for acoustic guitar and electric guitar. Tablatures and chords are parodies/interpretations of the original songs. You may use it for private study, scholarship, research or language learning purposes only