» » »

U2, Red Hill Mining Town Tabs (ver.1)

Artists:  A B C D E F G H I J K L M N O P Q R S T U V W X Y Z # 

Red Hill Mining Town Tabs (ver.1)

U2 Tabs
Rating:
0/5 (0 votes)
Red Hill Mining Town lessons Tabs too difficult? Try these video lessons and learn fast
                b- bend   /-slide   

Intro Gtr 1
E|--------7--------7--------7--------7--------7-------------------------------------------------------
B|-----8--------8--------8--------8--------8-----------5----------5----------5----------5----------5--
G|--7--------7--------7--------7--------7-----------5----------5----------5----------5----------5-----
D|-----------------------------------------------5----------5----------5----------5----------5--------
A|----------------------------------------------------------------------------------------------------
E|----------------------------------------------------------------------------------------------------
Gtr. 1
E|--------7--------7--------7--------7--------7-------------------------------------------------------
B|-----8--------8--------8--------8--------8-----------5----------5----------6----------5----------5--
G|--7--------7--------7--------7--------7-----------5----------5----------5----------5----------5-----
D|-----------------------------------------------5----------5----------5----------5----------5--------
A|----------------------------------------------------------------------------------------------------
E|----------------------------------------------------------------------------------------------------
Gtr. 2
|----------------------------------------------------------------------------------------------------
B|----------------------------------------------------------------------------------------------------
G|----------------------------------------------------------------------------------------------------
D|----------------------------------------------------------------------------------------------------
A|----------------------------------------------------------------------------------------------------
E|-------------------------------------------------------------------------------------------8/3------

|----------------------------------------------------------------------------------------------------
B|--------7--------7--------8--------7--------7--------2--------2--------3--------2--------2----------
G|-----7--------7--------7--------7--------7--------2--------2--------2--------2--------2-------------
D|--7--------7--------7--------7--------7--------2--------2--------2--------2--------2----------------
A|----------------------------------------------------------------------------------------------------
E|----------------------------------------------------------------------------------------------------
Gtr. 2
E|----------------------------------------------------------------------------------------------------
B|----------------------------------------------------------------------------------------------------
G|----------------------------------------------------------------------------------------------------
D|----------------------------------------------------------------------------------------------------
A|----------------------------------------------------------------------------------------------------
E|-------------------------------------------------------------------------------------------8/10-----





Verse (gtr. 1)
E|--------7--------7--------7--------7--------7-------------------------------------------------------
B|-----8--------8--------8--------8--------8-----------5----------5----------6----------5----------5--
G|--7--------7--------7--------7--------7-----------5----------5----------5----------5----------5-----
D|-----------------------------------------------5----------5----------5----------5----------5--------
A|----------------------------------------------------------------------------------------------------
E|----------------------------------------------------------------------------------------------------
Gtr. 2
|----------------------------------------------------------------------------------------------------
B|----------------------------------------------------------------------------------------------------
G|----------------------------------------------------------------------------------------------------
D|----------------------------------------------------------------------------------------------------
A|----------------------------------------------------------------------------------------------------
E|-------------------------------------------------------------------------------------------8/3------

Chorus
E|--10----------10----------10----------5--------5--------5--------1--------1--------1--------1--------1--------1--------
B|------10----------10----------10---------5--------5--------5--------1--------1--------1--------1--------1--------1-----
G|----------11----------11----------11--------6--------6--------6--------2--------2--------2--------2--------2--------2--
D|-----------------------------------------------------------------------------------------------------------------------
A|-----------------------------------------------------------------------------------------------------------------------
E|-----------------------------------------------------------------------------------------------------------------------

That's pretty much the whole song. Try messing around with the riffs a little bit.
            
Submit corrections

comments powered by Disqus
↑ Back to top | U2 Tabs for Red Hill Mining Town. Lyrics for acoustic guitar and electric guitar. Tablatures and chords are parodies/interpretations of the original songs. You may use it for private study, scholarship, research or language learning purposes only