» » »

U2, New Year's Day Tabs (ver.1)

Artists:  A B C D E F G H I J K L M N O P Q R S T U V W X Y Z # 

New Year's Day Tabs (ver.1)

U2 Tabs
 Rating:
4/5 (4 votes)
New Year's Day lessons Tabs too difficult? Try these video lessons and learn fast
                NEW YEAR'S DAY 

Music by U2 - Lyrics by Bono and The Edge

(LIVE VERSION FROM POPMART TOUR - 1997)



[Tune down your guitar 1/2 step]

[Harmonics]

e-----<12>-----------------
B-------<12>--------------
G---------<12>-------------
D-----------<12>----------
A------------------------
E------------------------

e-----------------------
B----------<7>----------
G--------<7>-----------
D------<7>-------------
A----<7>---------------
E--<7>------------------

[PIANO PART]

e--------------------------
B-----12-12-12-12-12-12-12-
G-----12-12-12-12-12-12-12-
D-----12-12-12-12-12-12-12-
A--------------------------
E--------------------------

All is quiet on New Year's Day

[Harmonics]

e-----<12>---------------
B--------<12>-----------
G-----------<12>-------
D--------------<12>-----
A------------------------
E------------------------

A world in white gets underway

e----------------------
B----------------------
G-------------<7>------
D----------<7>---------
A-------<7>------------
E----<7>---------------

And I want to be with you
Be with you night.. 

e-----<12>---------------
B---------<12>-----------
G-------------<12>-------
D-----------------<12>---
A------------------------
E------------------------

..and day
Nothing changes on New Year's Day

    D          E           E        D
e-------------------------------------
B---8-8-8--8-8/10-10-10\0--10-10-10/8-
G---7-7-7--7-7/9--9--9\0---9--9---9/7-
D---5-5-5--5-5/7--7--7\0---7--7---9/5-
A-------------------------------------
E-------------------------------------

                           on New Year's Day

                            E
e---------------------------------------
B--5---8--8--8--8---10-10---10-10-10-10-
G--------7--7--7--7---9---9--9--9--9--9-
D----------------------------7--7--7--7-
A---------------------------------------
E---------------------------------------

I will be with you again

e------------------------------
B-----8--8--8--8---8--8---8-8--
G-------7--7--7--7---5--5-5-5--
D------------------------------
A------------------------------
E------------------------------

I will be with you again

e---------------------------------------
B-------8--8--8-----8-----8-8/10-10/0---
G-------9--9--9---7-----7---7/9--9/0----
D---------------------5-----5/7--7/0----
A---------------------------------------
E---------------------------------------

Under a blood red sky

e--x-x-x-x---------
B--x-x-x-x---------
G--x-x-x-x--------- slide down on the fret board
D--x-x-x-x---------
A--x-x-x-x---------
E--x-x-x-x---------

e--x-x-x-x---------
B--8-8-8-8---------
G--x-x-x-x---------
D--x-x-x-x---------
A--x-x-x-x---------
E--x-x-x-x---------

A crowd has gathered in black and white

e--x-x-x-x---------
B--x-x-x-x---------
G--x-x-x-x--------- [Slide down on the fret board]
D--x-x-x-x---------
A--x-x-x-x---------
E--x-x-x-x---------

e--x-x-x-x---------
B--8-8-8-8---------
G--x-x-x-x---------
D--x-x-x-x---------
A--x-x-x-x---------
E--x-x-x-x---------

Arms entwined, the chosen few

e--x-x-x-x---------
B--x-x-x-x---------
G--x-x-x-x---------
D--x-x-x-x---------
A--x-x-x-x---------
E--x-x-x-x---------

e--x-x-x-x---------
B--8-8-8-8--8-8-8--
G--x-x-x-x--7-7-7--
D--x-x-x-x--5-5-5--
A--x-x-x-x---------
E--x-x-x-x---------

Newspapers say, say

e---------------------------------------
B--5---8--8--8--8---10-10---10-10-10-10-
G--------7--7--7--7---9---9--9--9--9--9-
D----------------------------7--7--7--7-
A---------------------------------------
E---------------------------------------

It says it's true it's true, and we can break through

e------------------------------
B-----8--8--8--8---8--8---8-8--
G-------7--7--7--7---5--5-5-5--
D------------------------------
A------------------------------
E------------------------------

Though torn in two we can be one

e---------------------------------------
B--5---8--8--8--8---10-10---10-10-10-10-
G--------7--7--7--7---9---9--9--9--9--9-
D----------------------------7--7--7--7-
A---------------------------------------
E---------------------------------------

I will begin again

e------------------------------
B-----8--8--8--8---8--8---8-8--
G-------7--7--7--7---5--5-5-5--
D------------------------------
A------------------------------
E------------------------------

I will begin again

e-------------------------------------
B---8-8-8--8-8/10-10-10\0--10-10-10/8-
G---7-7-7--7-7/9--9--9\0---9--9---9/7-
D---5-5-5--5-5/7--7--7\0---7--7---9/5-
A-------------------------------------
E-------------------------------------

e-----------------------------------------
B---8-8-8--8-8/10-10-10\0--10-10-10/8-8-8-
G---7-7-7--7-7/9--9--9\0---9--9---9/7-5-5-
D---5-5-5--5-5/7--7--7\0---7--7---9/5-----
A-----------------------------------------
E-----------------------------------------

[PIANO PART]


SOLO:

e--19-----17----15----12-------
B-----20-----17----15----12----
G------------------------------ x2
D------------------------------
A------------------------------
E------------------------------

e---------------------------------------------------------------------------------------
B--------------------------------------------------------------12-12-12-12-12/0-12-12/0-
G-----0---0-2-----------0---------------------------------------------------------------
D---0---2-----0-2-----0---2--10-10-9----10-9---10-9-9-10-12-10--------------------------
A-0---------------0-2----------------10------7------------------------------------------
E---------------------------------------------------------------------------------------

e-----12-12-12-12-12/0-12-12-12/0--12-12/0-----
B------x--x--x--x--x----x--x--x-----x--x-------
G------x--x--x--x--x----x--x--x-----x--x-------
D------x--x--x--x--x----x--x--x-----x--x-------
A------x--x--x--x--x----x--x--x-----x--x-------
E----------------------------------------------

e---------------------------------------
B--5---8--8--8--8---10-10---10-10-10-10-
G--------7--7--7--7---9---9--9--9--9--9-
D----------------------------7--7--7--7-
A---------------------------------------
E---------------------------------------

I will be with you again

e------------------------------
B-----8--8--8--8---8--8---8-8--
G-------7--7--7--7---5--5-5-5--
D------------------------------
A------------------------------
E------------------------------

I will be with you again

e---------------------------------------
B--5---8--8--8--8---10-10---10-10-10-10-
G--------7--7--7--7---9---9--9--9--9--9-
D----------------------------7--7--7--7-
A---------------------------------------
E---------------------------------------

I will be with you again

e-----------------------------------------
B-----8--8--8--8---8--8---8-8-8-8/10--10/0
G-------7--7--7--7---5--5-5-5-7-7/9----9/0
D-----------------------------5-5/7----7/0
A-----------------------------------------
E----------------------------------------

I will be with you again



For suggestions and corrections
            
Submit corrections

comments powered by Disqus
↑ Back to top | U2 Tabs for New Year's Day. Lyrics for acoustic guitar and electric guitar. Tablatures and chords are parodies/interpretations of the original songs. You may use it for private study, scholarship, research or language learning purposes only