>
 >
 >
Mysterious Ways 1

Mysterious Ways 1 Guitar Tabs

U2 - Mysterious Ways 1 chords, tabs, tablatures, lyrics

Guitar lessons | Add/correct | Request | Top 50 tabs Artists:  A B C D E F G H I J K L M N O P Q R S T U V W X Y Z 0-9

Mysterious Ways 1 Guitar Tabs – U2

CD, Sheet music, Poster

Do you like Mysterious Ways 1? Share with your friends now
Bass TabsChordsChords v2TabsTabs v2Ukulele
U2

Mysterious Ways     (From the album "Achtung Baby")
---------------

Capo 8th Fret!! (Heavy distortion recommended)

Intro/transitions: (Repeated about 9 times)
E--------------------------------------
B------11-11---------------------------
G------10-10---------------------------
D----8--8--8---------------------------
A-11-----------------------------------
E--------------------------------------
  (Note: the above is basically the Bb chord played on a few strings)

(Note: chords given below generally are played by an organ in background)

Johnny took a walk
Bb

With your sister the moon
	  Eb

Let her pale light in 
Bb

To fill up your room
   F

You've been living underground
Bb

Eating from a can
Eb

You've been running away
Bb

	      F	
    
Chorus: (the chorus basically just switches back between the Bb and Eb chords)
E--------------11-11-|-----------------
B------11-11---11-11-|-----------------
G------10-10----8--8-|-----------------
D-------8--8---------|-----------------
A--------------------|-----------------
E--------------------|-----------------
         (Bb)  (Eb)

(So, when you see Bb or Eb, play the above chord formations, respectively)

She's slippy
Bb

You're sliding down
Eb

She'll be there
Bb

When you hit the ground
Eb


It's alright...it's alright...it's alright
Bb 		      		    Eb

She moves in mysterious ways
Db	     Ab

It's alright...it's alright...it's alright
Bb		      		    Eb

She moves in mysterious ways 
Db 	     Ab
    
Johnny take a dive
With your sister in the rain
Let her talk about the things
You can't explain
To touch is to heal
To hurt is to steal
If you want to kiss the sky
Better learn how to kneel (...on your knees boy!)
    
She's the wave
She turns the tide
She sees the man inside the child

It's alright...it's alright...it's alright
She moves in mysterious ways
It's alright...it's alright...it's alright
She moves in mysterious ways
It's alright...it's alright...it's alright
She moves in mysterious ways
It's alright...it's alright...it's alright
Lift my days...light up my nights
    
Guitar Solo:
 E-16-18-16-18-16-18-16-18-16-18-------
 B-------------------------------------
 G-------------------------------------
 D-------------------------------------
 A-------------------------------------
 E-------------------------------------
  (Repeat above riff 5 times)

 E-10-10-10-10-10-10-11-10--8----------
 B-11-11-11-11-11-11-11-11-11----------
 G-10-10-10-10-10-10-10-10-10----------
 D-------------------------------------
 A-------------------------------------
 E-------------------------------------
  (Repeat above riff 6 times) (Note: this is just a "play" on the Bb chord)

Bridge: (Strum each chord once, and let ring)
One day you'll look back
Bb-minor       Eb

And you'll see
           Bb-minor

Where

You were held how
         Ab

By this love
        Bb

While

You could stand
          Eb

There

And not move on this moment
        Db

Follow this feeling
Ab

    
It's alright...it's alright...it's alright
She moves in mysterious ways
It's alright...it's alright...it's alright
We move through miracle days
Spirit moves in mysterious ways
She woves with it
She woves with it
Lift my days and light up my nights
Db               Ab                   Bb


CHORD FORMATIONS:   (Remember the capo on 8th fret!)
Bb   x  x  8 10 11 10 (D chord formation)
Eb  11 10  8  8 11 11 (G/D chord formation)
F    x  8 10 10 10  x (A chord formation)
Db   9 11 11 10  9  9 (E chord formation, bar first finger across 9th fret)
Ab   8 11 10  8  9  x (C chord formation)
Bb-m x  x  8 10 11  9 (Dm chord formation)





Comments


Popular U2 tabs & chords
Sometimes You Cant Make It On Your Own Bass Tabs
Stateless Bass Tabs
Hallelujah Here She Comes Chords
Wild Honey 4 Chords
Window In The Skies Chords
Zooropa Chords
Beautiful Day 1 Tabs
Mysterious Ways Tabs
Where The Streets Have No Name Intro Tabs
Sometimes You Cant Make It On Your Own 2 Ukulele


Song lyrics



↑ Back to top | Tablatures and chords are parodies/interpretations of the original songs. You may use it for private study, scholarship, research or language learning purposes only
© 2014 AZChords.com Contact us | Privacy policy | DMCA | Add/correct tabs | Request tabs | Top 50 tabs