» » »

Twisted Sister, The Price Tabs (ver.1)

Artists:  A B C D E F G H I J K L M N O P Q R S T U V W X Y Z # 

The Price Tabs (ver.1)

Twisted Sister Tabs
Rating:
3/5 (1 vote)
The Price lessons Tabs too difficult? Try these video lessons and learn fast
                Banda - Twisted Sister
Cancion - The Price
Album - Stay Hungry
Afincacion en "MI"  "E" Standar

Guitar 1 Eddie "Fingers" Ojeda - Intro
|-------------------------------------|-------------------------13----|
|-16b--13--------13----15-13----------|-16b-13-------13--15--15----15-|
|----------12h14----14-------14p12h14-|--------12h14---14-------------|
|-------------------------------------|-------------------------------|
|-------------------------------------|-------------------------------|
|-------------------------------------|-------------------------------|

|-------------------------------------|----------------------13-15v---|
|-16b--13--------13----15-13----------|-16b-13----13--15--15----------|
|----------12h14----14-------14p12h14-|--------14---------------------|
|-------------------------------------|-------------------------------|
|-------------------------------------|-------------------------------|
|-------------------------------------|-------------------------------|

Guitar 2 Jay Jay French - Intro/Coro 2 veces
|------|------|------|-----|
|------|------|------|-----|
|----5-|----5-|----5-|--7--|
|-3--5-|-3--5-|-3--5-|--7--|
|-3--3-|-3--3-|-3--3-|--5--|
|-1----|-1--0-|-1--0-|-----|

Guitar 1 Eddie "Fingers" Ojeda - Verso 
|-----1---|-----3----|-------------------------|
|------1--|------3---|-----6-----8p6----5------|
|-------3-|-------5--|-------7--------7---7----|
|---3-----|---5------|---7-----7------------7--|
|-1-------|-3--------|-5-----------------------|
|---------|----------|-------------------------|

Guitar 2 Jay Jay French - Pre-Coro
|----------------------------------|
|----------------------------------|
|----5---5--7---7--5--3------5--7--|
|-3--5---5--7---7--5--3---3--5--7--|
|-3--3---3--5---5--3--1---3--3--5--|
|-1-----------------------1--------|

Guitar 2 Jay Jay French - Coro 

Guitar 1 Eddie "Fingers" Ojeda - Solo
|------------------------------------------------|--------------------|
|----------------------------------------------5-|-8-8v-8v--6p5-6p5---|
|-------------------------2---2-3-2-3-7--5--7----|-----------------7--|
|-------2---2-3-2-3-5-3-5---5--------------------|--------------------|
|-5-3-5---5--------------------------------------|--------------------|
|------------------------------------------------|--------------------|

|---------------8------------8----10-10h13p10-|--------10p8-|
|--------6----8---8-8--8h10----10-------------|-10p8--------|
|-7--5-7---7----------------------------------|------10-----|
|---------------------------------------------|-------------|
|---------------------------------------------|-------------|
|---------------------------------------------|-------------|

|-10-10h13p10------13---15--19--20--20-20--|
|---------------15-------------------------|
|------------------------------------------|
|------------------------------------------|
|------------------------------------------|
|------------------------------------------|
            

comments powered by Disqus
↑ Back to top | Twisted Sister Tabs for The Price. Lyrics for acoustic guitar and electric guitar. Tablatures and chords are parodies/interpretations of the original songs. You may use it for private study, scholarship, research or language learning purposes only