» » »

Tv On The Radio, Wolf Like Me Bass tabs (ver.1)

Artists:  A B C D E F G H I J K L M N O P Q R S T U V W X Y Z # 

Wolf Like Me Bass tabs (ver.1)

Tv On The Radio Tabs
 Rating:
3.4/5 (10 votes)
Wolf Like Me lessons Tabs too difficult? Try these video lessons and learn fast
1
                -------------------------------------------------------------------------------
-------------------------------------------------------------------------------


Tuning: Standard



Brilliant song by a brilliant band... I haven't seen any decent bass tabs
anywhere, so I thought I'd do one. It's a really easy song to play, but it's 
fun. There's only two parts: the bit you play during the verses and chorus, 
and the breakdown. Both can be played a lot of different ways, but I play it 
mostly on the E string since it sounds better to me. You could do it
differently, though. The notes are still right. 



Verses/Chorus: 

G|---------------------------------------------------------------------------|
D|---------------------------------------------------------------------------|
A|---------------------------------------------------------------------------|
E|--7-7-7-7-7-7-7-7-7-7-7-7-7-7-7-7-7-7-7-7-7-7-7-7-7-7-7-7-7-7-5-5----------|

G|---------------------------------------------------------------------------|
D|---------------------------------------------------------------------------|
A|---------------------------------5-5-5-5-5-5-5-5-5-5-5-5-5-5---------------|
E|-3-3-3-3-3-3-3-3-3-3-3-3-3-3-3-3-------------------------------------------|



Breakdown (starts at 2:03, bass comes in at about 2:07): 

G|---------------------------------------------------------------------------|
D|---------------------------------------------------------------------------|
A|-----------------------------3-4h-5h---------------------------------------|
E|-7-----9---7---5---0---3---------------------------------------------------|

                               ^This part is really soft, but I think I got 
                                it right. 
                               

And that's it. Just play along and it'll fit. 

| /  slide up
| \  slide down
| h  hammer-on
| p  pull-off
| ~  vibrato
| +  harmonic
| x  Mute note
===============================================================================
            
Submit corrections

comments powered by Disqus
↑ Back to top | Tv On The Radio Bass for Wolf Like Me. Lyrics for acoustic guitar and electric guitar. 1 Tablatures and chords are parodies/interpretations of the original songs. You may use it for private study, scholarship, research or language learning purposes only