>
 >
Dancing Choose

Dancing Choose Chords

Tv On The Radio - Dancing Choose chords, tabs, tablatures, lyrics

Guitar lessons | Add/correct | Request | Top 50 tabs Artists:  A B C D E F G H I J K L M N O P Q R S T U V W X Y Z 0-9

Dancing Choose Chords – Tv On The Radio

CD, Sheet music, Poster

Do you like Dancing Choose? Share with your friends now
ChordsTabsUkulele
strummed fast and furious, sung in a similar fashion


Intro

e|------------------------------------------------------------|
B|------------------------------------------------------------|
G|------------------------------------------------------------|
D|--5-5-5-5-5-5-5---------------------------------------------|
A|------------------------------------------------------------|
E|----------------5-5-5-5-5-5-5-3-3-3-3-3-3-3-3---------------|




Verse (repeat as dictated by lyrics)
"He's a what?!..."
       D5       F5      A5       G5
e|------------------------------------------------------|
B|------------------------------------------------------|
G|---7-7-7-7--------------------------------------------|
D|---7-7-7-7-3-3-3-3-7-7-7-7-5-5-5-5--------------------|
A|---5-5-5-5-3-3-3-3-7-7-7-7-5-5-5-5--------------------|
E|-----------1-1-1-1-5-5-5-5-3-3-3-3--------------------|



Chorus (Also the outro)
"In my mind...."

  D  F  Am  G
e|-2--1--0--3------------------------------------------|
B|-3--1--1--3------------------------------------------|
G|-2--2--2--0------------------------------------------|
D|-0--3--2--0------------------------------------------|
A|----3--0--2------------------------------------------|
E|----1-----3------------------------------------------|



Lyrics

Verse
He's a what He's a what
He's a newspaper man
and he gets his best ideas
To his comments and his rants
He knows that any little article will do

Though he expresses some confusion
'bout his part in the plan,
and he can't understand
That he's not in command;
The decisions underwritten
Bought a sweater for
His weimariner too

Now I'm no madman,
but that's insanity
Feast before famine,
and more before family
Goes and shows up with
More bowls and more
Cups and the riot for the
Last hot meal erupts
Corrupts his hard drive
Through the leanest months
Shells out the hard cash
For the sickest stunts;
on aftershave, on gasoline
He flips the page and turns
The scene


Chorus
In my mind I'm drowning butterflies
Broken dreams and alibis;
That's fine---.
I've seen my palette blown
To monochrome-
Hollow heart
Clicks hollowtone,
It's time---.


Verse
Eye on authority,
Thumb prints a forgery
Boy, ain't it crazy what the
Lights can do
For counterfeit community;
Every opportunity
Wasted as the space
Between the flash tattoo

and the half-hearted hologram,
Posed for the party
Now he gloss full bleed
On a deaf dumb tree
Cod liver dollar signs,
Credit card autograph
Down for the record
but not for freedom

Angry young mannequin
American, apparently
Still to the rhythm
Better get to the back of me
Can't stand the vision,
Better tongue the anatomy
Gold plated overhead,
Blank transparency
in the days of old,
You were a nut
Now you need three bumps
Before you cut
Not that I should care about,
Nothing I ain't scared of, but
I guess you had
To
Be
There.


Chorus
In my mind I'm breeding butterflies,
Broken dreams, and alibis;
That's fine---.
I've seen my palette
Blown to monochrome
Hollow heart
Clicks hollowtone
in time---.

I see you figured in your action pose
Foam-injected axl rose,
Life size
Should something shake you
and you drop the news,
Lord, just keep your dancing shoes
Off mine





Comments


Popular Tv On The Radio tabs & chords
Dreams Bass Tabs
Will Do 1 Bass Tabs
Dlz 1 Chords
Love Dog Chords
Shout Me Out Chords
Wolf Like Me 1 Chords
Halfway Home Ukulele
Second Song Ukulele
Stork And Owl Ukulele
Young Liars Ukulele


Song lyrics



↑ Back to top | Tablatures and chords are parodies/interpretations of the original songs. You may use it for private study, scholarship, research or language learning purposes only
© 2014 AZChords.com Contact us | Privacy policy | DMCA | Add/correct tabs | Request tabs | Top 50 tabs