» » »

Tv On The Radio, Crying Tabs (ver.1)

Artists:  A B C D E F G H I J K L M N O P Q R S T U V W X Y Z # 

Crying Tabs (ver.1)

Tv On The Radio Tabs
 Rating:
4/5 (7 votes)
Crying lessons Tabs too difficult? Try these video lessons and learn fast
1
                Verse
0:26
e---9-x-9-----------------9-x-9---------------------|
b---9-x-9-----------------9-x-9---------------------|
g---9-x-9---------9-9-----9-x-9---------9-9---------|
d---7-x-7---9h-11-----11--7-x-7---9h-11-----11-9-11-|  (repeat 8 times)
a---------------------------------------------------|
E---------------------------------------------------|

Chorus (this is done on a keyboard but its still fun to play)
1:00
e--------------------|
b--------------------|
g--13-11-9-8-------9-|
d-----------11-9-11--|
a--------------------|
E--------------------|

After the chorus this little riff is played and it goes back into the Verse
1:15
e------12-12-12-12-12-12-12-12-|
b------12-12-12-12-12-12-12-12-|
g-9/11-11-11-11-11-11-11-11-11-|
d------------------------------|
a------------------------------|
E------------------------------|

Then during the 3rd chorus this little keyboard part is played over and over till the 
of the song
3:06
e---16p-14h-16-14p-12h-14-12p-9h-12-----------------------|
b-----------------------------------12p-9h-12-------------|
g---------------------------------------------9-11-11-9---|
d------------------------------------------------------11-|
a---------------------------------------------------------|
E---------------------------------------------------------|
            
Submit corrections

comments powered by Disqus
↑ Back to top | Tv On The Radio Tabs for Crying. Lyrics for acoustic guitar and electric guitar. 1 Tablatures and chords are parodies/interpretations of the original songs. You may use it for private study, scholarship, research or language learning purposes only