» » »

My Block Tabs (ver.2)

Artists:  A B C D E F G H I J K L M N O P Q R S T U V W X Y Z # 

My Block Tabs (ver.2)

Tupac Shakur
Rating:
4/5 (4 votes)

Hard to play? Try these video lessons and learn fast.
                (Intro)
E|---------------|---------------|---------------|---------------|
B|--------0------|-----7---------|-----7---------|-------0-------|
G|------8--------|--------8------|--------8------|-----6---------|
D|---6-------6---|-----------8---|-----------9---|----------6----|
A|---------------|--6------------|--6------------|--9---------9--|
E|---------------|---------------|---------------|---------------|

E|---------------|---------------|---------------|---------------|
B|--------0------|-----7---------|-----7---------|---------------|
G|------8--------|--------8------|--------8------|-----0---------|
D|---6-------6---|-----------8---|-----------9---|-------6---7---|
A|---------------|--6------------|--6------------|--9------------|
E|---------------|---------------|---------------|---------------|

This is my first tab but i know its not as bad as the other one!
its much more closer to the song...The last one doesnt show the
whole intro. This one does and its way more easier to play. Just
keep repeating it!

AMS...
            
Hard to play? Try these video lessons and learn fast. | Correct




comments powered by Disqus
↑ Back to top | Tablatures and chords are parodies/interpretations of the original songs. You may use it for private study, scholarship, research or language learning purposes only