» » »

The Invasion From Within Bass tabs (ver.1)

Artists:  A B C D E F G H I J K L M N O P Q R S T U V W X Y Z # 

The Invasion From Within Bass tabs (ver.1)

Tsunami Bomb
Rating:
0/5 (0 votes)

Hard to play? Try these video lessons and learn fast.
                
Tsnami Bomb - The Invasion From Within
Tuning: Standard (E A D G)

G|-----------------------------------------------------------------||
D|-----------------------------------------------------------------||
A|----555-666-8866----555-666-8866----555-666-8866----555-666-8866-||
E|333-------------333-------------333-------------333--------------||


G|-----------------------------------------------------------------||
D|-----------------------------------------------------------------||
A|----555-666-8866----555-666-8866----555-666-8866----555-666-8866-||
E|333-------------333-------------333-------------333--------------||


G|-----------------------------------------------------------------||
D|-----------------------------------------------------------------||
A|----555566668866----555566668866----555566668866----555566668866-||
E|3333------------3333------------3333------------3333-------------||



G|-----------------||
D|-----------------||
A|55555555---------||
E|--------3--------||



G|---------------------------------||
D|---------------------------------||
A|----555-666-8866----555-666-8866-||
E|333-------------333--------------||



G|-----------------------------------------------------------------||
D|-----------------------------------------------------------------||
A|----555566668866----555566668866----555566668866----555566668866-||
E|3333------------3333------------3333------------3333-------------||


G|------------------||
D|------------------||
A|55555555----------||
E|--------3---------||



G|-------------------------------------------------||
D|-------------------------------------------------||
A|----555-666-8866----555-666-8866----555-666-8866-||
E|333-------------333-------------333--------------||


G|-------------------------------||
D|-------------------------------||
A|55555555-5---------------------||
E|----------5653------0----------||

3x
G|-----------------------------------------||
D|-----------------------------------------||
A|-----------------------------------------||
E|7----5----3----2----5----3----2----0-----||


G|-----------------------------------------||
D|-----------------------------------------||
A|-----------------------------------------||
E|7----5----3----2----5----3----22----0----||

G|-----------------------------------------------------------------||
D|-----------------------------------------------------------------||
A|----555566668866----555566668866----555566668866----555566668866-||
E|3333------------3333------------3333------------3333-------------||


G|------------------||
D|------------------||
A|55555555----------||
E|--------3---------||


G|-----------------------------------------------------------------||
D|-----------------------------------------------------------------||
A|----555-666-8866----555-666-8866----555-666-8866----555-666-8866-||
E|333-------------333-------------333-------------333--------------||

G|----||
D|----||
A|----||
E|333-||

================================================================================
            
Hard to play? Try these video lessons and learn fast. | Correct




comments powered by Disqus
↑ Back to top | Tablatures and chords are parodies/interpretations of the original songs. You may use it for private study, scholarship, research or language learning purposes only